Pyörteeseen

Kolmas Nainen

Tom: C
Intro 
   1  +  2  +  3  +  4  +  | 1  +  2  +  3  +  4  +  | 1  +  2  +  3  +  4  +  | 1  +  2  +  3  +  4  +  | 
   C          Csus2          C          Csus2          Am7        A7sus4/G       Am7        A7sus4/G 
e|-------------------------|-------------------------|-------------------------|-------------------------| 
B|-------------------------|-------------------------|-------------------------|-------------------------| 
G|-------5--x-7-7-7-7-7-7-7|-------5--x-7-7-7-7-7-7-7|-------5--x-7-7-7-7-7-7-7|-------5--x-7-7-7-7-7-7-7| 
D|----5-5------------------|----5-5------------------|----5-5------------------|----5-5------------------| 
A|-3-----------------------|-3-----------------------|-------------------------|-------------------------| 
E|-------------------------|-------------------------|-5-----------------------|-5-----------------------| 
                                                                                                       Oli 
Verse 
C       Csus2             C         Csus2 
aika jolloin ilta tuoksui tuntemattomalta 
Am7         A7sus4/G   Am7         A7sus4/G 
täyttymyksen pelko oli viedä jalat alta 
C      Csus2       C      Csus2     Am7    Asus4/G 
tiesin etten välttyä vois enää suudelmalta 
Am7   A7sus4/G    Am              B (just the bass note) 
      tiesin muutakin salat universumin 

Pre-Chorus 
   1  +  2  +  3  +  4  +  | 1  +  2  +  3  +  4  +  | 1  +  2  +  3  +  4  +  | 1  +  2  +  3  +  4  +  | 
   C          Csus2          C          Csus2          Am7        A7sus4/G       Am7        A7sus4/G 
e|-------------------------|-------------------------|-------------------------|-------------------------| 
B|-------------------------|-------------------------|-------------------------|-------------------------| 
G|-------5--x-7-7-7-7-7-7-7|-------5--x-7-7-7-7-7-7-7|-------5--x-7-7-7-7-7-7-7|-------5--x-7-7-7-7-7-7-7| 
D|----5-5------------------|----5-5------------------|----5-5------------------|----5-5------------------| 
A|-3-----------------------|-3-----------------------|-------------------------|-------------------------| 
E|-------------------------|-------------------------|-5-----------------------|-5-----------------------| 
                                                                                             Pyörteeseen 

Chorus 
C   Csus2   C   Csus2 
                 vedit minut 
Am7 A7sus4/G Am7 A7sus4/G 
   pyörteeseen 
F    Fmaj7  F   Fmaj7   F 
                        mukanasi pyörteeseen 

Bridge 
   1  +  2  +  3  +  4  +  | 1  +  2  +  3  +  4  +  | 1  +  2  +  3  +  4  +  | 1  +  2  +  3  +  4  +  | 
   C                                                   Bb 
e|-------------------------|-------------------------|-------------------------|-------------------------| 
B|-5--------------3--5--6--|-------5-----3-----5-----|-3-----------------------|-------------------------| 
G|-5--------------5--5--5--|-------5-----5-----5-----|-3-----------------------|-------3-----2-----0-----| 
D|-5-----------------------|-------------------------|-3-----------------------|-------3-----3-----3-----| 
A|-3-----------------------|-------------------------|-1-----------------------|----1--------------------| 
E|-------------------------|-------------------------|-------------------------|-------------------------| 
                                                       Montako     elämää        ihminen     elää  eläissään  
  
   1  +  2  +  3  +  4  +  | 1  +  2  +  3  +  4  +  | 1  +  2  +  3  +  4  +  | 1  +  2  +  3  +  4  +  | 
   C                                                   Bb 
e|-------------------------|-------------------------|-------------------------|-------------------------| 
B|-5--------------3--5--6--|-------5-----3-----5-----|-3-----------------------|-------------------------| 
G|-5--------------5--5--5--|-------5-----5-----5-----|-3-----------------------|-------3-----2-----0-----| 
D|-5-----------------------|-------------------------|-3-----------------------|-------3-----3-----3-----| 
A|-3-----------------------|-------------------------|-1-----------------------|----1--------------------| 
E|-------------------------|-------------------------|-------------------------|-------------------------| 
                                                       Montako    rakkautta     kuolee    ja tyhjää  jää 

   1  +  2  +  3  +  4  +  | 1  +  2  +  3  +  4  +  | 1  +  2  +  3  +  4  +  | 1  +  2  +  3  +  4  +  | 
   C                                                   F 
e|-------------------------|-------------------------|-1-----------------------|-------------------------| 
B|-5--------------3--5--6--|-------5-----3-----5-----|-1-----------------------|-------------------------| 
G|-5--------------5--5--5--|-------5-----5-----5-----|-2--------------0--2--3--|-------2-----0-----2-----| 
D|-5-----------------------|-------------------------|-3--------------3--3--3--|-------3-----3-----3-----| 
A|-3-----------------------|-------------------------|-------------------------|-------------------------| 
E|-------------------------|-------------------------|-------------------------|-------------------------| 
                                         Montako      säröä     sieluni     sietää     ennen kuin murenee 

   1  +  2  +  3  +  4  +  | 1  +  2  +  3  +  4  +  | 1  +  2  +  3  +  4  +  | 1  +  2  +  3  +  4  +  | 
      C                         G                      Bb 
e|-------------------------|-------------------------|-------------------------|-------------------------| 
B|----1-----1--------------|----3-----3--------------|-3-----3-----3-----3-----|-3-----3-----3-----3-----| 
G|----0-----0--------------|----0-----0--------------|-3-----3-----3-----3-----|-3-----3-----3-----3-----| 
D|----2-----2--------------|----0-----0--------------|-3-----3-----3-----3-----|-3-----3-----3-----3-----| 
A|----3--2--3--------------|----2--2--2--------------|-1-----1-----1-----1-----|-1-----1-----1-----1-----| 
E|-------------------------|----3-----3--------------|-------------------------|-------------------------| 
                                                     Mikseivät  järki    ja   tahto     jo   sopua tee 

   1  +  2  +  3  +  4  +  | 1  +  2  +  3  +  4  +  | 1  +  2  +  3  +  4  +  | 1  +  2  +  3  +  4  +  | 
   Eb       Bb               Db    Ab                  C 
e|----6-----6--------------|-4-----4-----------------|-------------------------|-------------------------| 
B|----8-----6--------------|-6-----4-----------------|-5--5--5--5--5--5--5--5--|-5-----------------------| 
G|-------------------------|-------------------------|-5--5--5--5--5--5--5--5--|-5-----------------------| 
D|-------------------------|-------------------------|-5--5--5--5--5--5--5--5--|-5-----------------------| 
A|-6--------5--------------|-4-----3-----------------|-3--3--3--3--3--3--3--3--|-3-----------------------| 
E|-------------------------|-------------------------|-------------------------|-------------------------| 

Verse 
C       Csus2   C      Csus2 
Ohuemmat voimat ohjailevat mua 
Am7        A7sus4/G     Am7        A7sus4/G    
niukasti on mitään mihin kourin tarrautua 
C          Csus2        C    Csus2 
enkä tiedä kumpi liikkuu     maailma vai mä 

Solo (You have to use slide or retune guitar to play the harmonic sound) 
   1  +  2  +  3  +  4  +  | 1  +  2  +  3  +  4  +  | 1  +  2  +  3  +  4  +  | 1  +  2  +  3  +   4  +  | 
   C                                                   Bb                        F 
e|----13----12-------------|----13----12-------------|----------------------5--|--------------------------| 
B|-------------------------|-------------------------|----3--------------------|----6---------------------| 
G|-------------------------|-------------------------|----------3--------------|----------5-----5/7\5-h7--| 
D|-------------------------|-------------------------|----------------3--------|--------------------------| 
A|-------------------------|-------------------------|-------------------------|--------------------------| 
E|-------------------------|-------------------------|-------------------------|--------------------------| 

   1  +  2  +  3  +  4  +  | 1  +  2  +  3  +  4  +  | 1  +  2  +  3  +  4  +  | 1  +  2  +  3  +  4   +  | 
   C                                                   Bb                        F 
e|----13----12-------------|----13----12-------------|-------------------------|----------------8/10\8h10-| 
B|-------------------------|-------------------------|----------------------10-|--------------------------| 
G|-------------------------|-------------------------|----7--------------------|----10--------------------| 
D|-------------------------|-------------------------|----------8--------------|----------10--------------| 
A|-------------------------|-------------------------|----------------8--------|--------------------------| 
E|-------------------------|-------------------------|-------------------------|--------------------------| 

   1  +  2  +  3  +  4  +  | 1  +  2  +  3  +  4  +  | 1  +  2  +  3  +  4  +  | 1  +  2  +  3  +  4  +  | 
   C                                                   Bb                        F 
e|----13----12-------------|----13----12-------------|----------------------5--|--------------------------| 
B|-------------------------|-------------------------|----3--------------------|----6---------------------| 
G|-------------------------|-------------------------|----------3--------------|----------5-----5/7\5-h7--| 
D|-------------------------|-------------------------|----------------3--------|--------------------------| 
A|-------------------------|-------------------------|-------------------------|--------------------------| 
E|-------------------------|-------------------------|-------------------------|--------------------------| 
                                                                                             Pyörteeseen 
Chorus 
Csus4  C  Csus4  C 
                  vedit minut 
Am7#5  C/G  Am7#5  C/G 
   pyörteeseen 
F    Fmaj7  F   Fmaj7   F 
                        mukanasi pyörteeseen 

Bridge 
   1  +  2  +  3  +  4  +  | 1  +  2  +  3  +  4  +  | 1  +  2  +  3  +  4  +  | 1  +  2  +  3  +  4  +  | 
   C                                                   Bb 
e|-------------------------|-------------------------|-------------------------|-------------------------| 
B|-5--------------3--5--6--|-------5-----3-----5-----|-3-----------------------|-------------------------| 
G|-5--------------5--5--5--|-------5-----5-----5-----|-3-----------------------|-------3-----2-----0-----| 
D|-5-----------------------|-------------------------|-3-----------------------|-------3-----3-----3-----| 
A|-3-----------------------|-------------------------|-1-----------------------|----1--------------------| 
E|-------------------------|-------------------------|-------------------------|-------------------------| 
                                                       Montako     elämää        ihminen     elää  eläissään  
  
   1  +  2  +  3  +  4  +  | 1  +  2  +  3  +  4  +  | 1  +  2  +  3  +  4  +  | 1  +  2  +  3  +  4  +  | 
   C                                                   Bb 
e|-------------------------|-------------------------|-------------------------|-------------------------| 
B|-5--------------3--5--6--|-------5-----3-----5-----|-3-----------------------|-------------------------| 
G|-5--------------5--5--5--|-------5-----5-----5-----|-3-----------------------|-------3-----2-----0-----| 
D|-5-----------------------|-------------------------|-3-----------------------|-------3-----3-----3-----| 
A|-3-----------------------|-------------------------|-1-----------------------|----1--------------------| 
E|-------------------------|-------------------------|-------------------------|-------------------------| 
                                                       Montako    rakkautta     kuolee    ja tyhjää  jää 

   1  +  2  +  3  +  4  +  | 1  +  2  +  3  +  4  +  | 1  +  2  +  3  +  4  +  | 1  +  2  +  3  +  4  +  | 
   C                                                   F 
e|-------------------------|-------------------------|-1-----------------------|-------------------------| 
B|-5--------------3--5--6--|-------5-----3-----5-----|-1-----------------------|-------------------------| 
G|-5--------------5--5--5--|-------5-----5-----5-----|-2--------------0--2--3--|-------2-----0-----2-----| 
D|-5-----------------------|-------------------------|-3--------------3--3--3--|-------3-----3-----3-----| 
A|-3-----------------------|-------------------------|-------------------------|-------------------------| 
E|-------------------------|-------------------------|-------------------------|-------------------------| 
                                         Montako      säröä     sieluni     sietää     ennen kuin murenee 

   1  +  2  +  3  +  4  +  | 1  +  2  +  3  +  4  +  | 1  +  2  +  3  +  4  +  | 1  +  2  +  3  +  4  +  | 
      C                         G                      Bb 
e|-------------------------|-------------------------|-------------------------|-------------------------| 
B|----1-----1--------------|----3-----3--------------|-3-----3-----3-----3-----|-3-----3-----3-----3-----| 
G|----0-----0--------------|----0-----0--------------|-3-----3-----3-----3-----|-3-----3-----3-----3-----| 
D|----2-----2--------------|----0-----0--------------|-3-----3-----3-----3-----|-3-----3-----3-----3-----| 
A|----3--2--3--------------|----2--2--2--------------|-1-----1-----1-----1-----|-1-----1-----1-----1-----| 
E|-------------------------|----3-----3--------------|-------------------------|-------------------------| 
                                                     Mikseivät  järki    ja   tahto     jo   sopua tee 

   1  +  2  +  3  +  4  +  | 1  +  2  +  3  +  4  +  | 1  +  2  +  3  +  4  +  | 1  +  2  +  3  +  4  +  | 
   Eb       Bb          Db            Ab               C 
e|----6-----6-----------4--|----------4--------------|-------------------------|-------------------------| 
B|----8-----6-----------6--|----------4--------------|-------------------------|-------------------------| 
G|-------------------------|-------------------------|-------------------------|-------------------------| 
D|-------------------------|-------------------------|/7--5--3--2--0-----------|-------------------------| 
A|-6--------5-----------4--|----------3--------------|----------------3--------|-------------------------| 
E|-------------------------|-------------------------|-------------------3--1--|-0-----------------------| 

Outro 
   1  +  2  +  3  +  4  +  | 1  +  2  +  3  +  4  +  | 1  +  2  +  3  +  4  +  | 1  +  2  +  3  +   4  +  | 
   C                                                   Bb                        F 
e|----13----12-------------|----13----12-------------|----------------------5--|--------------------------| 
B|-------------------------|-------------------------|----3--------------------|----6---------------------| 
G|-------------------------|-------------------------|----------3--------------|----------5-----5/7\5-h7--| 
D|-------------------------|-------------------------|----------------3--------|--------------------------| 
A|-------------------------|-------------------------|-------------------------|--------------------------| 
E|-------------------------|-------------------------|-------------------------|--------------------------| 
                                                                                            Pyörteeseen 

   1  +  2  +  3  +  4  +  | 1  +  2  +  3  +  4  +  | 1  +  2  +  3  +  4  +  | 1  +  2  +  3  +  4   +  | 
   C                                                   Am7#5    C/G              Am7#5    C/G 
e|----13----12-------------|----13----12-------------|-------------------------|--------------------------| 
B|-------------------------|-------------------------|----6-----5--------------|----6-----5---------------| 
G|-------------------------|-------------------------|----5-----5--------------|----5-----5---------------| 
D|-------------------------|-------------------------|----5-----5--------------|----5-----5---------------| 
A|-------------------------|-------------------------|-------------------------|--------------------------| 
E|-------------------------|-------------------------|----5-----3--------------|----5-----3---------------| 
                                       vedit minut        pyörteeseen 

   1  +  2  +  3  +  4  +  | 1  +  2  +  3  +  4  +  | 1  +  2  +  3  +  4  +  | 1  +  2  +  3  +  4  +  | 
   C                                                   Bb                        F 
e|----13----12-------------|----13----12-------------|----------------------5--|-------------------------| 
B|-------------------------|-------------------------|----3--------------------|----6--------------------| 
G|-------------------------|-------------------------|----------3--------------|----------5--------------| 
D|-------------------------|-------------------------|----------------3--------|----------------5--------| 
A|-------------------------|-------------------------|-------------------------|-------------------------| 
E|-------------------------|-------------------------|-------------------------|-------------------------| 

   1  +  2  +  3  +  4  +  | 1  +  2  +  3  +  4  +  | 1  +  2  +  3  +  4  +  | 1  +  2  +  3  +  4  +  | 
   C 
e|-12----------------------|-------------------------|-------------------------|-------------------------| 
B|-------------------------|-------------------------|-------------------------|-------------------------| 
G|-------------------------|-------------------------|-------------------------|-------------------------| 
D|-------------------------|-------------------------|-------------------------|-------------------------| 
A|-------------------------|-------------------------|-------------------------|-------------------------| 
E|-------------------------|-------------------------|-------------------------|-------------------------| 


************************************ 

| x   Dead note 
| p   Pull-off 
| /   Slide up 
| \   Slide down 

************************************ 

Compartilhe esta música: novo

QR Code
Copiar