Wenn Ich Dich Gefunden Hab

Kid Kopphausen

  




Intro & Verse: 

e|--0--0--0--0-----------| 
B|--1--1--1--1-----------| 
G|--0--0--2--0-----------| 
D|--2--0--2--0-----------| 
A|--3--2--0--2-----0--2--| 
E|-----------3--3--------| 

'Wenn ich Dich gefunden hab, bringst Du mich dann nach Haus ...' 


Pre-Chorus 

e|--1--3--| 
B|--1--0--| 
G|--2--0--| 
D|--3--0--| 
A|--3--2--| 
E|--1--3--| 

'Diese Welt voller Farben, wunderschön und nie trist. 
Alles was blieb ist der Rahmen aus dem sie gefallen ist.' 



Chorus: 

e|--0--0--0--3--|:(3x) 
B|--1--1--1--0--| 
G|--0--0--2--0--| 
D|--2--0--2--0--| 
A|--3--2--0--2--| 
E|-----------3--| 

'Auf all meine Fragen...' 

e|--1--3--| 
B|--1--3--| 
G|--2--0--| 
D|--3--0--| 
A|--3--2--| 
E|--1--3--| 

'...Doch jetzt find ich den Weg nicht mehr zurück.' 


Bridge: 

e|--1--3--0--0-----1--1--| 
B|--1--0--0--1--1--1--1--| 
G|--2--0--1--2--0--2--1--| 
D|--3--0--2--2--0--3--3--| 
A|--3--2--2--0--2--3--3--| 
E|--1--3--0--------1--1--| 

'Ich weiß die Chancen stehen schlecht...' 

Compartilhe esta música: novo

QR Code
Copiar