Gasoline

Kicking Harold

Tom: D


Intro 

e|--------------| 
B|--------------| 
G|------------5-| 
D|3-0-0-3-0-0-5-| 
A|3-0-0-3-0-0-3-| 
D|3-0-0-3-0-0---| 

Verse 

e|--------------------| 
B|--------------------|
G|--------------------| 
D|3-0-0-0-0-3-0-0-0-0-| X4 
A|3-0-0-0-0-3-0-0-0-0-| 
D|3-0-0-0-0-3-0-0-0-0-| 

Chorus 


e|--------------------------------------------| 
B|--------------------------------------------| 
G|------------------------------------------5-| 
D|3-0-0-0-0-3-0-0-0-0-3-0-0-0-0-3-0-0-3-0-0-5-|X2 
A|3-0-0-0-0-3-0-0-0-0-3-0-0-0-0-3-0-0-3-0-0-3-| 
D|3-0-0-0-0-3-0-0-0-0-3-0-0-0-0-3-0-0-3-0-0---| 

e|------------------------------------------------------------------------| 
B|------------------------------------------------------------------------| 
G|---------5555-555------------------------------5555-555-----------------| 
D|3333-333-5555-555-3-0-0-0-0-3-0-0-0-0-3333-333-5555-555-3-0-0-0-0-3-0-0-| 
A|3333-333-3333-333-3-0-0-0-0-3-0-0-0-0-3333-333-3333-333-3-0-0-0-0-3-0-0-| 
D|3333-333----------3-0-0-0-0-3-0-0-0-0-3333-333----------3-0-0-0-0-3-0-0-| 

Verse 

Chorus 

Bridge 

Guitar 1 
e|---------------------------------| 
B|33333333555555556666666688888888-| 
G|00000000000000000000000000000000-| 
D|---------------------------------| 
A|---------------------------------| 
D|---------------------------------| 

Guitar 2 
e|---------------| 
B|---------------| 
G|---------------| 
D|-3-2--5-3-2--5-| 
A|---------------| 
D|---------------| 

Compartilhe esta música: novo

QR Code
Copiar