Pitcher Of Summer

Kayo Dot

 


Intro: 

D|------------------------------------------------------------------------------------------------| 
C|----------------------------4------------------------------------------0--------0--------0------| 
G|--5------------------2------2-------4---------------------------7---------4--------4-------4----| 
D|-----------5--->>>----2----2------------0------- 0------0------0-----0-----7--------7-------7---| 
A|--0-------------------------0--------------0-------0-------0----0----0--------------------------| 
F|-----------0----------------0-------3--3-----3-3-----3-3--------0---0--------0--------0--------0| 


MAIN THEME: 

D|-------------------------------------------------------------| 
C|-5-5-------------5---5-----0-----0---------------------------| 
G|-7-7----5>>7----7-----7-----7-----7------7-7-7-7-7-7---------| 
D|-7-7----5>>7----7-------7-----7-----7----7-7-7-7-7-7---------| 
A|-0-0----0--------0-----------------------5-5-5-5-0-0---------| 
F|-0-0-00-0-----0--0-----------------------6-6-6-6-0-0---------| 


verse 1: 

D|------------------------------------------------------------------------------| 
C|------------------------------------4---------------------------4-------------| 
G|-5------------------------0--2------2---4-----------4>>5----7-----5>>7-----4--| 
D|-----0-------0-------0----0-----2---2-------0---------------7------------7----| 
A|-------0-------0-------0--2-----0---0---------0-------------0------------0----| 
F|-4-4-----4-4-----4-4------0-----0---0---3-3-----3-3---------0------------0----| 

-------------------------| 
-0-----0-----0----0------| 
---4-----4----4----------| 
----7-----7-----7----7---| 
-------------------------| 
------0-----0-----0----0-| 


REPEAT MAIN THEME (X2) 


Pre-Chorus Dissonance 
D|------------| 
C|------------| 
G|--5----7----| 
D|--5----7----| 
A|--3----5----| 
F|--3----6----| 

Chorus: Rhythm Guitar just plays these two notes... figure it out by ear. 
D|------------------------------------------------------------------------------------| 
C|------------------------------------------------------------------------------------| 
G|--7--7--7--7--7-----7--7-----7--7------7--7--7--7--7-------7--7-------5----7--------| 
D|--7--7--7--7--7-----7--7-----7--7------7--7--7--7--7-------7--7-------5----7--------| 
A|--5--5--5--0--0-----5--5-----0--0------5--5--5--0--0-------5--5-------3----5--------| 
F|--6--6--6--0--0-----6--6-----0--0------6--6--6--0--0-------6--6-------3----6--------| 



HAMMER ON THE HEAVY DISTORTION AND PLAY YOUR PRE_Chorus DIRT / DISSONANCE. 

The ?loud? Chorus follows the first Chorus just with distortion and noodling on guitar  
#2 (didn?t do that one) 
It moves through the motions twice and adds this little bit when Toby sings: 

?The wind turning drifting stars to madness? 

D|----------|                 D|-------------------------------------------------------| 
C|----------|                 C|-------------------------------------------------------| 
G|---7-->>--|                 G|---12-------12--12--12-->>--3--3--3--3--3--------------| 
D|---7-->>--|      to         D|---12-------12--12--12-->>--3--3--3--3--3--6~----------| 
A|---5-->>--|                 D|---10-------10--10--10-->>--1--1--1--1--1--3~----------| 
F|---6-->>--|                 F|---11-------11--11--11-->>--2--2--2--1--1--4~----------| 



                      ?Poured Forth...? 
D|--------------------------------------------| 
C|--------------------------------------------| 
G|-------------7~~-----7-7-7->>0--------------| 
D|---6--6--6---7~~-----7-7-7->>0--------------| 
A|---3--3--3---0~~-----5-5-5->>0--------------| 
F|---4--4--4---0~~-----6-6-6->>0--------------| 



?WHILE...............SNOOOOOW....? 

D|----------------------------| 
C|----------------------------| 
G|--5~-->>0------5~-->>0------| 
D|--5~-->>0------5~-->>0------| 
A|--3~-->>0------3~-->>0------| 
F|--3~-->>0------3~-->>0------| 

Compartilhe esta música: novo

QR Code
Copiar