Watch It Burn

Katastro

Intro and verse 
e|----------------------------------------------5--------3---3---------------------| 
B|----------------------------------0h3p0-------7--------3---3---------------------| 
G|-----1h2p1----------------------0------0----- 7--------4---4---------------------| 
D|---0------0------7----5-5------2--------2---- 7--------5---5---------------------| 
A|--2--------2------------------3-----------3/5-5--------5---5---------------------| 
E|-0------------2/8--8\7-------------------------(3)(3)--3---3---------------------| 

e|----------------------------------------------5---------------12-12--------------| 
B|----------------------------------0h3p0-------7---------------12-12--------------| 
G|-----1h2p1----------------------0------0----- 7---------------11-11--------------| 
D|---0------0------7----5-5------2--------2---- 7--------12-12--12-12--------------| 
A|--2--------2------------------3-----------3/5-5--------12-12--12-12--------------| 
E|-0------------2/8--8\7---------------------------5/10--10-10--10-10--------------| 

Chorus  

e|-----------------5--3------------------------------------------------------------| 
B|-----------------7--5------------------------------------------------------------| 
G|---12-11------9--7--5----12-11---------------------------------------------------| 
D|---------12-9----7--5----------12-9----------------------------------------------| 
A|-----------------5--3------------------------------------------------------------| 
E|---------------------------------------------------------------------------------| 

e|-----------------5--3------------------------------------------------------------| 
B|-----------------7--5------------------------------------------------------------| 
G|---12-11------9--7--5----12-11---------------------------------------------------| 
D|---------12-9----7--5----------12-9----------------------------------------------| 
A|-----------------5--3------------------------------------------------------------| 
E|---------------------------------------------------------------------------------| 

e|-----------------5--3-----------------5--5---------------------------------------| 
B|-----------------7--5-----------------7--5---------------------------------------| 
G|---12-11------9--7--5----12-11--------7--5---------------------------------------| 
D|---------12-9----7--5----------12-9---7--5---------------------------------------| 
A|-----------------5--3-----------------5--3---------------------------------------| 
E|---------------------------------------------------------------------------------| 

e|-----------------5--3-----------------5--5---------------------------------------| 
B|-----------------7--5-----------------7--5---------------------------------------| 
G|---12-11------9--7--5----12-11--------7--5---------------------------------------| 
D|---------12-9----7--5----------12-9---7--5---------------------------------------| 
A|-----------------5--3-----------------5--3---------------------------------------| 
E|---------------------------------------------------------------------------------| 

http://katastro.com/ 

jnsims 

Compartilhe esta música: novo

QR Code
Copiar