Angels

Katastro

Intro/Verses: 

e|-------------------------------------------------------------------| 
B|-3/--0------0--------10-12*--8----8------3--5----5------3---5~-----| 
G|-0/--0------0-------x--------0----0------0--0----0------0---0~-----| 
D|-----9-------------x-----------------------------------------------| X4 
A|-2/--10--10---10-9-----------7--7---7--2----3--3---3--2-----3~-----| 
E|-------------------------------------------------------------------| 



Chorus: 

e|-------------------------------------------------------------------| 
B|-12---8----8----7--8---5----5---12--8----8---8-----3---5~----------| 
G|--0---0----0----0--0---0----0----0--0----0---0-----0---0~----------| X5 
D|--9-------------4------2---------9---------------------------------| 
A|-10---7--7---7--5--7---3--3-----10--7--7---7-----2-----3~----------| 
E|-------------------------------------------------------------------| 


Then back to the verse and then, 

Outro: 
e|-------------------------------------------------------------------| 
B|----3-------12~----------------------------------------------------| 
G|----0--------0~----------------------------------------------------| 
D|-------------9~----------------------------------------------------| 
A|-2----------10~----------------------------------------------------| 
E|-------------------------------------------------------------------|  

Compartilhe esta música: novo

QR Code
Copiar