Twenty

Karma To Burn

Tom: D
Main Riff 
e|-----------------------------------------------------------------| 
B|-----------------------------------------------------------------| 
G|-7-7-7-7-7-----------------------7-7-7-7-7-----------------------| 
D|-7-7-7-7-7-----------------------7-7-7-7-7----------------3b-----| 
A|-5-5-5-5-5-6-5-0-5-6-5-0-3-5-6-0-5-5-5-5-5-----------------------| 
D|-0-0-0-0-0-6-5-0-5-6-5-0-3-5-6-0-0-0-0-0-0-6-5-0-5-6-5-0---------| 
 PM          --------------------            ----------------------| 
e|-----------------------------------------------------------------| 
B|-----------------------------------------------------------------| 
G|-7-7-7-7-7---------------------7-7-7-7-7-------------------------| 
D|-7-7-7-7-7---------------------7-7-7-7-7-----------=-------------| 
A|-5-5-5-5-5-6-5-0-5-6-5-0-3-5-6-5-5-5-5-5-6-5-3-0-xxxx------------| 
D|-0-0-0-0-0-6-5-0-5-6-5-0-3-5-6 0-0-0-0-0-6-5-3-0-xxxx------------| 
PM           ---------------------         ------------------------| Mute at first fret 
Riff 1 
e|-----------------------------------------------------------------| 
B|-----------------------------------------------------------------| 
G|-----------------------------------------------------------------| 
D|-10-12-12-10-12p10-12-12-12-12-12-12-----------------------------| 
A|-------------------10-10-10-10-10-10-----------------------------| 
D|-----------------------------------------------------------------| 

e|-----------------------------------------------------------------| 
B|-----------------------------------------------------------------| 
G|-----------------------------------------------------------------| 
D|--10-12-12-10-12p10-10-10-10-10-10-10----------------------------| 
A|---------------------8--8---8--8--8--8---------------------------| 
D|-----------------------------------------------------------------| 

e|-----------------------------------------------------------------| 
B|-----------------------------------------------------------------| 
G|-----------------------------------------------------------------| 
D|--10-12-12-10-12p10-12-12-12-12-12-12----------------------------| 
A|--------------------10-10-10-10-10-10----------------------------| 
D|-----------------------------------------------------------------| 

e|-----------------------------------------------------------------| 
B|-----------------------------------------------------------------| 
G|-----------------------------------------------------------------| 
D|-----------------------------------------------------------------| 
A|---0-3-0-3-0-5h6-5-0----------------------------------=----------| 
D|---0-3-0-3-0-5h6-5-0---------------------------------------------| 
Bridge 
e|-----------------------------------------------------------------| 
B|-----------------------------------------------------------------| 
G|---5-5-5-5-55-6-6-6-6-66-----------------------------------------| 
D|-----------------------------------------------------------------| 
A|---3-3-3-3-33-4-4-4-4-44-----------------------------------------| 
D|-----------------------------------------------------------------| 
Riff 2 
e|-----------------------------------------------------------------| 
B|---------------------------9-9-----------------------------------| 
G|--7-7-10p7-7-8p7-7-10p7-7----------------------------------------| 
D|-----------------------------------------------------------------| 
A|-----------------------------------------------------------------| 
D|-----------------------------------------------------------------| 

e|-----------------------------------------------------------------| 
B|-----------------------------------------------------------------| 
G|--7-7-10p7-7-8p7-7-8p7-7-8-8-------------------------------------| 
D|-----------------------------------------------------------------| 
A|-----------------------------------------------------------------| 
D|-----------------------------------------------------------------| 

Order 
Main Riff x3 
Riff 1 x2 
Bridge x1 
Main Riff x2 
Riff 1 x2 
Bridge x1 
Riff 2 x6 
Bridge x1 
Main Riff x2 with no palm-muting 



| /  slide up 
| \  slide down 
| h  hammer-on 
| p  pull-off 
| ~  vibrato 
| +  harmonic 
| x  Mute note 

Compartilhe esta música: novo

QR Code
Copiar