The Scars

Jurojin

Tom: C
Intro: 
d--------------------------------------------------------------------------------------| 
A--------------------------------------------------------------------------------------| 
F--------------------------------------------------------------------------------------| 
C-------------------------------------------------------------3-5-(6)-5-3--------------| 
G----5---3h5------------------------------5----3h5------------------------5------------| 
C-0----x--------0---3h5-0-6-5-0-3h5---0-----x--------0-3h5-----------------------------| 

Transitions into both verses: 

Into verse 1: 
d----------------------------------------| 
A----------------------------------------| 
F----------------------------------------| 
C-6-5-0-3---5-0-6-5-0-3---5-3-0-3--------| 
G-6-5-0-3---5-0-6-5-0-3---5-3-0-3--------| 
C-6-5-0-3---5-0-6-5-0-3---5-3-0-3--------| 

Into verse 2: 
d---------------------------------------------------| 
A---------------------------------------------------| 
F---------------------------------------------------| 
C--6-5-0-3p0----------------------------------------| 
G----------------3p0--------------------------------| 
C-----------------------6-5-0-3p0--3-5-6------------| 

Verses: 
d--------------------------------------------------------------------------| 
A--------------------------------------------------------------------------| 
F---------7--------------------------------5-------5/7---------------------| 
C--------------------7---------5-------------------------------------------| 
G-----5--------------------------------3--------3--------------------------| 
C--0---------0--5-------0-3-------0----------0-----------------------------| 

d-----------------------------------------------------------------| 
A-----------------------------------------------------------------| 
F---------7-------------------------------5-----------------------| 
C--------------------7---------5----------------------------------| 
G-----5--------------------------------3----3---------------------| 
C--0---------0--5-------0-3-------0-----------6-5-3---------------| 

Chorus: 

d----------------------------------------------------------------------------------------| 
A----------------------------------------------------------------------------------------| 
F----------------------------------------------------------------------------------------| 
C--15-15-15-14--0-0-0-0--9-9-9-9-10-9--10-10-10-7--0-0-3-5-0-3---------------------------| 
G--15-15-15-14--0-0-0-0--7-7-7-7--8-7--10-10-10-7--0-0-3-5-0-3---5-5-5-3-----------------| 
C--15-15-15-14--0-0-0-0----------------10-10-10-7--0-0-3-5-0-3---------------------------| 

d------------------------------------------------------------------------| 
A------------------------------------------------------------------------| 
F------------------------------------------------------------------------| 
C--15-15-15-14--0-0-0-0--9-9-9-9-10-9--10-10-10-7--0-0---3-3---5-3-------| 
G--15-15-15-14--0-0-0-0--7-7-7-7--8-7--10-10-10-7--0-0---3-3--------5-3--| 
C--15-15-15-14--0-0-0-0----------------10-10-10-7--0-0---3-3-------------| 

d-----------------------------------------------------------------------------| 
A----------------------------10-----------------------------------------------| 
F-----------------------------7-----------------------------------------------| 
C--15-15-15-14--0--0---------------7---0-0--3--3--5---------------------------| 
G--15-15-15-14--0--0---------------7---0-0--3--3--5---------------------------| 
C--15-15-15-14--0--0---------------7---0-0--3--3--5---------------------------| 

d-------------------------------------------------------------------------------------| 
A-------------------------------------------------------------------------------------| 
F-------------------------------------------------------------------------------------| 
C--15-15-15-14--0-0-0-0--9-9-9-9-10-9--12--3--12--3----3---5--------------------------| 
G--15-15-15-14--0-0-0-0--7-7-7-7--8-7--12--3--12--3----3---5--------------------------| 
C--15-15-15-14--0-0-0-0----------------12--3--12--3----3---5--------------------------| 

Break 1: 
d-------------------------------------------------------------------------| 
A-------------------------------------------------------------------------| 
F-------------------------------------------------------------------------| 
C---------------------------3--5--x--6------------------------------------| 
G---5-5---5-3-0-3-3--3----------------5-5--5-3-0-3-3--3----------3--------| 
C------------------------------------------------------------------3-5-6--| 

Alternate transition for the above part: 
d---------------------------------------------------------------| 
A---------------------------------------------------------------| 
F---------------------------------------------------------------| 
C---------------------------------------------------------------| 
G---------------------------------------------------------------| 
C----0-3-5-6---5--3--0------------------------------------------| 

Break 2: 
d----------------------------------------------------------------------------------------| 
A----------------------------------------------------------------------------------------| 
F----------------------------------------------------------------------------------------| 
C---7-5-0-2-3-0-7-5-0-2-3--x-8-10-0-10--7--0-0--10---------------------------------------| 
G---7-5-0-2-3-0-7-5-0-2-3--x-8-10-0-10--7--0-0------8---------------12-------------------| 
C---7-5-0-2-3-0-7-5-0-2-3--x-8-10-0-10--7--0-0--------7--0--10----------0--3-------------| 


d-------------------------------------------------------------------------------------| 
A-------------------------------------------------------------------------------------| 
F-------------------------------------------------------------------------------------| 
C---7-5-0-2-3-0-7-5-0-2-3---2--2-----------5------------------5-----------------------| 
G---7-5-0-2-3-0-7-5-0-2-3---2--2--------3----3------------3-----3---------------------| 
C---7-5-0-2-3-0-7-5-0-2-3---2--2--0-2----------2----0-2-----------0--2----------------| 

d----------------------------------------------------------------------------------------| 
A----------------------------------------------------------------------------------------| 
F----------------------------------------------------------------------------------------| 
C---7-5-0-2-3-0-7-5-0-2-3--0-8-10-0-10--7--0-0--10-----------------12--------------------| 
G---7-5-0-2-3-0-7-5-0-2-3--0-8-10-0-10--7--0-0------8------------------------------------| 
C---7-5-0-2-3-0-7-5-0-2-3--0-8-10-0-10--7--0-0--------7--0--10----------0--3-------------| 


d----------------------------------------------------------------------------------------| 
A----------------------------------------------------------------------------------------| 
F----------------------------------------------------------------------------------------| 
C---7-5-0-2-3-0-7-5-0-2-3--0--2---3---5--------10-10-10---12-12-12-----------------------| 
G---7-5-0-2-3-0-7-5-0-2-3--0--2---3---5--------8---8--8---10-10-10-----------------------| 
C---7-5-0-2-3-0-7-5-0-2-3--0--2---3---5--------8---8--8---10-10-10-----------------------| 

Ending of last chorus: 
d----------------------------------------------------------------------| 
A----------------------------------------------------------------------| 
F----------------------------------------------------------------------| 
C--------------3-5-6-5-3p5h3-----3-----------3---5---------------------| 
G---------3-5------------------5-----5-3p0---3---5---------------------| 
C-0-3-5--------------------------------------3---5---------------------| 
 

Compartilhe esta música: novo

QR Code
Copiar