3 Small Words

Josie and the Pussycats

 
Intro 
E|------------------| 
B|------------------| 
G|-9----------------|  
D|-9--14--13--11--9-| 
A|-7--14--13--11--9-| 
E|----12--11--9---7-| 
 
 
Verso 
E|------------| 
B|------------| 
G|-9----------| 
D|-9--9--7--4-| 
A|-7--9--7--4-| 
E|----7--5--2-| 
   pm pm pm pm 
  
pra cada acorde da intro e do refrão toca umas 8 vezes....menos o final do refrão (5/7) 
 
refrão 
E|--------------------------------| 
B|--------------------------------| 
G|-9------------9-----------------| 
D|-9--9--11--7--9--9----7---7---7-| 
A|-7--9--11--7--7--9----7---7---7-| 
E|----7--9---5-----7--55--55--55--| 
 
 
refrão 2 
E|-------------------------------| 
B|-------------------------------| 
G|-9------------9----------------| 
D|-9--9--11--7--9--9--9b-7~~~~~ -| 
A|-7--9--11--7--7--9-------------| 
E|----7--9---5-----7-------------| 
 
outro 
E|-----| 
B|-----| 
G|-----| 
D|--2--| 
A|--2--| 
E|--0--| 
 
 
 
Play Order: 
 
Intro 1x 
Verso 2x 
refrão1 2x 
Intro 1x 
 
 
Verso 2x 
refrão1 1x 
refrão2 1x 
 
refrão1 2x 
Outro 1x (deixa soar) 
 
_______________________________________________________ 
Contribuição: Lizoka Rox([email protected]) 

Compartilhe esta música: novo

QR Code
Copiar