Grow Old With You

Jorell Prosperi

Tom: G

INTRO/VERSe 


e-------------------------------------------------------0---------------------- 
B----------0-0-----------1-1-1----------3-3-3-3------------3------------------- 
G--------2--------2--------------2-----------------4---------0-0--0------------ 
D-0-0-0---------0---0----------2---2-------------4---4-----------2--2---------- 
A----------------------0--------------2-------2---------3------3--------------- 
E--------3---3----------------------------------------------------------------- 

e----------------------------------------------------------------------------- 
B---0-0---0-------------------1--0-------------------------------------------- 
G-2-----2-----2--------2-2-2--------0----------------------------------------- 
D-----------0---0----0-------------------------------------------------------- 
A-----------------------------3-----------3s5-3-2----------------------------- 
E-3-------3----------------------------3-----------5--3----------------------- 

Then, Repeat Verse again..  

This chord must be played first before 'I miss you, Kiss you'part.. 


Miss you.. Kiss you.. 

CHORDS, C, G 

e------------------------------------------------------------------------------ 
B-3-------3--------3----3----1---0--1--0--1--0--------------------------------- 
G-----0-------0----0----0----0---0--0--0--0--0-2-0----------------------------- 
D---2---2---2---2-----0---0----0----------------------------------------------- 
A-3---3---3---3---------------------------------------------------------------- 
E------------------3---------3------3-----3------------------------------------ 

Repeat the C chord part except G. 


Then,  


e-------------------------------------------------------------------------- 
B----0-0---0--0----1--0---------------------------------------------------- 
G--2-----2------0--------0------------------------------------------------- 
D--0----------------------------------------------------------------------- 
A------------------3------------------------------------------------------- 
E-------------------------------------------------------------------------- 

e-------------------------------------------------------------------------- 
B-----0-0----0--0--0--0------1-1-1----------------------------------------- 
G--2------2---------------------------2------------------------------------ 
D-----------------------------------2---2---------------------------------- 
A------------------------0------------------------------------------------- 
E--3---------3------------------------------------------------------------- 

e--------------------0---------------------------------------------------- 
B---3-3-3-3--------------3------------------------------------------------ 
G--------------4-----------0--0----0-------------------------------------- 
D------------4---4---------------2---2------------------------------------ 
A-2-------2----------3--------3------------------------------------------- 
E------------------------------------------------------------------------- 


e--------------------------------------------------------3---------------- 
B-----0--0----0------------------1--0-----------------3--3---------------- 
G--2--------2-----2--------2-2-2-------0------------0----0---------------- 
D---------------0---0---0-------------------------0------0- 

Compartilhe esta música: novo

QR Code
Copiar