Waiting on the World to Change

John Mayer

Tom: D
Tuning:Regular 
 
 
Intro/Verse/Chorus 
 
e:--10---7---------------3-----------------5---7----------------3------| 
B:--10---7---------------3---7------7------5---7----------------3---7--| 
G:--11---7-----7h9p7-----4---7------7------6---7-----7h9p7------4---7--| 
D:--12---7-7h9-------9---5---7------7------7---7-7h9-------9----5---7--| 
A:--x----x---------------x---5--7/9----9\--x---x----------------x---5--| 
E:--10---7---------------3-----------------5---7----------------3------| 
 
Pre-Chorus 
 
e:--10--7---7---7----------------5--7---------------3-------| 
B:--10--8---7---8--7h8p7---------5--7---------------3---7---| 
G:--11--7---7---7-------7h9p7----6--7-----7h9p7-----4---7---| 
D:--12--9---7---9-------------9--7--7-7h9-------9---5---7---| 
A:--x---7---x---7----------------x--x---------------x---5---| 
E:--10------7--------------------5--7---------------3-------| 
 
Bridge 
This is what J.M plays 
e:-------------------------------4--------| 
B:-------------------------------4--------| 
G:-------------------------------x--------| 
D:--8---8---8--8--8--------------8--strum-| 
A:--7---7---7--7--7--------------7--------| 
E:----3---3----------------------3--------| 
 
This is what could be played if you have smaller hands 
e:-------------------------------4--------| 
B:-------------------------------4--------| 
G:--3---3---3--3--3--------------3--------| 
D:--2---2---2--2--2--------------2--strum-| 
A:-------------------------------x--------| 
E:----3---3----------------------3--------| 
 
Solo: 
e:---------------------------------------------------14p15p14p15p14-------| 
B:--7---5h7s10--7h10s12--10h12s15--12h15s17-17s19-15----------------15----| 
G:------------------------------------------------------------------------| 
D:------------------------------------------------------------------------| 
A:------------------------------------------------------------------------| 
E:------------------------------------------------------------------------| 
 
 

Compartilhe esta música: novo

QR Code
Copiar