Sunshine On My Shoulders

John Denver

Tom: G
Song:	Sunshine On My Shoulders 
Tab:	el Sancco ([email protected]) 
 
 
 
 
e|----------3-----------------3-------| 
B|--------------0---0H1-----------1---| 
G|------0-----------------0-----------| 
D|------------------------------------| 
A|------------------3-----------------| 
E|--3---------------------------------| 
  REPEAT THROUGHOUT SONG UNTIL YOU REACH 
  THE WORD ?CRY? WHICH IS WHEN YOU PLAY: 
 
e |------------------------------3---2--| 
B |--------------1-----------1----------| 
G |----------0-----------2--------------| 
D |------2-----------0------------------| 
A |--0----------------------------------| 
E |-------------------------------------| 
    ?Cry...? 
 
 
 
-------------------------------------------- 
Transcribed By SANCCO ([email protected]) 
--------------------------------------------- 
 

Compartilhe esta música: novo

QR Code
Copiar