I Love Rock 'N' Roll

Joan Jett & The Blackhearts

Tom: E
 Guitarra 1  


Intro  

e|---------------------------------------------------------------|  
B|---------------------------------------------------------------|  
G|---------------------------------------------------------------|  
D|---------------2-2----4-4----------------2-2---4---------------|  
A|---2-2-2-2-----0-0----2-2-----2-2-2-2----0-0---2--0---2-2------|  
E|---0-0-0-0--3--------------3--0-0-0-0--3--------------0-0------|  


estrofes e Solo 
                
e|---------------------------------------------------------------|  
B|---------------------------------------------------------------|  
G|---------------------------------------------------------------|  
D|--------2-0-------------------2-0-------------4-4--2-0---------|  
A|---2-2------2-0---2-2---2-2-------2-0---2-2---2-2------2-0-----|  
E|---0-0----------3-0-0---0-0-----------3-0-0----------------3---|  




e|---------------------------------------------------------------|  
B|---------------------------------------------------------------|  
G|-2-2---4-4--------2------4-4-4-4-4-4-4-4-----------------------|  
D|-0-0---2-2---2-2--0------2-2-2-2-2-2-2-2-----------------------|  
A|-------------0-0-----------------------------------------------|  
E|---------------------------------------------------------------|  


Refrão  

e|---------------------------------------------------------------|  
B|---------------------------------------------------------------|  
G|---------------------------------------------------------------|  
D|---------------2-2----4-4----------------2-2---4---------------|  
A|---2-2-2-2-----0-0----2-2-----2-2-2-2----0-0---2--0---2-2------|  
E|---0-0-0-0--3-----------------0-0-0-0--3--------------0-0------|  



 Guitarra II (Solo)  



Estrofes   

e|---------------------------------------------------------------|  
B|--15b-r15-12---------------------------------------------------|  
G|-------------14-12---------------------------------------------|  
D|---------------------------------------------------------------|  
A|---------------------------------------------------------------|  
E|---------------------------------------------------------------|  



e|---------------------------------------------------------------|  
B|-----------------------------------12-----12-------------------|  
G|--------------7\6/7-----9-11-11b13---11b13--11b13r11-9---9h11--|  
D|--------------6\5/6-9h11-------------------------------11------|  
A|--------------7\6/7--------------------------------------------|  
E|0-0-2-2b4r2-0--------------------------------------------------|  




e|----------------------------------------------------------------|  
B|-------------12-------------------------------------------------|  
G|----------9------9-9-9\8-8-8-8\6-6-6-6\4-4-4-4\2-2-2-2\1-1-1-1--|  
D|-9-9-9h11-------------------------------------------------------|  
A|----------------------------------------------------------------|  
E|----------------------------------------------------------------|  




e|---------------------------------------------------------------|  
B|---------------------------------------------------------------|  
G|---------------------------------------------------------------|  
D|-4-2----2------------------------------------------------------|  
A|-----4--0------------------------------------------------------|  
E|---------------------------------------------------------------|  


refrão final  

e|---0-0-0-0-0-0-0-0-0-0-----------------------------------------|  
B|---5-5-5-5-5-5-5-5-5-5-----------------------------------------|  
G|---------------------------------------------------------------|  
D|---------------------------------------------------------------|  
A|---------------------------------------------------------------|  
E|---------------------------------------------------------------|  

Compartilhe esta música: novo

QR Code
Copiar