I Hate Myself For Loving You

Joan Jett & The Blackhearts


		

(I Hate Myself For Loving You)
Tabbed By, BrandonArea51

Intro(Riff)


e|-----------------------------|----------------------------------|
B|-----------------------------|----------------------------------|
G|-----------------------------|----------------------------------|
D|--2---2---2---2---5---2------|-----2--2---0-0-0----0-0-0----0---|
A|--2---2---2---2---5---2---5--|--5--2--2----------2--------2-----|
E|--------------------------5--|--5-------------------------------|



e|-----------------------------|----------------------------------|
B|-----------------------------|----------------------------------|
G|-----------------------------|----------------------------------|
D|--2---2---2---2---5---2------|-----2--2---0-0-0----0-0-0----0---|
A|--2---2---2---2---5---2---5--|--5--2--2----------2--------2-----|
E|--------------------------5--|--5-------------------------------|


e|-------------------|
B|-------------------|
G|-----------------0-|
D|--2---2------0---2-|
A|--2---2---2--------|
E|-------------------| INTRO END

 

Compartilhe esta música: novo

QR Code
Copiar