Do you wanna touch me

Joan Jett & The Blackhearts

Tabbed by: Dan ([email protected]) 
Standard Tuning 
 
 
Intro 
E||------------------------------------| 
B||------------------------------------| 
G||--10----15--12----15--12----12--11--| 
D||--10----15--12----15--12----12--11--| 
A||--8-----13--10----13--10----10--9---| x2 
E||------------------------------------| 
 
 
Verse 
E||-----------|     |-----------|  	|-----------| 
B||-----------|     |-----------|	|-----------| 
G||-----------|     |--------5--|	|--7--6--5--| 
D||--------5--|     |--5--5--5--|	|--7--6--5--| 
A||--------5--| x2  |--5--5--3--|x1	|--5--4--3--| x1 
E||--0--1--3--|     |--3--3-----|	|-----------| 
 
 
Chorus 
E||------------|	|------------| 
B||------------|	|------------| 
G||------------|	|--7----7----| 
D||--5-5-5-5-5-|	|--7----7----| 
A||--5-5-5-5-5-| x1	|--5----5----| x1  
E||--3-3-3-3-3-|	|--5----5----| 
 
E||------------|	|--------------------| 
B||------------|	|--------------------| 
G||------------|	|--7----7----7----7--| 
D||--5-5-5-5-5-|	|--7----7----7----7--| 
A||--5-5-5-5-5-| x3	|--5----5----5----5--| x1  
E||--3-3-3-3-3-|	|--5----5----5----5--| 
 
 
(Repeat Intro) 
E||------------------------------------| 
B||------------------------------------| 
G||--10----15--12----15--12----12--11--| 
D||--10----15--12----15--12----12--11--| 
A||--8-----13--10----13--10----10--9---| 
E||------------------------------------| 
 
Repeat Verse 
Repeat Chorus 
Repeat Intro until ending 
 
 

Compartilhe esta música: novo

QR Code
Copiar