No Matter What

Jeremy Camp

Tom: D
No Matter What  
jeremy camp  

Verse 

E----------0--0--0--------------0--0--0----------------------------------------------------------- 
B----------3--3--3--------------3--3--3----------------------------------------------------------- 
G----------2--2--2--------------2--2--2-------------3--3--3----------------5--5--5---------------- 
D----0-----0--0--0----------0---0--0--0-------------3--3--3----------------5--5--5---------------- 
A------------------------------------------------1--1--1--1------------3---3--3--3------------x4-- 
E------------------------------------------------------------------------------------------------- 

Pre Chorus 

E----------------------------------------------------------------------------------------------- 
B----------------------------------------------------------------------------------------------- 
G----------------------------------------------------------------------------------------------- 
D-----5--5--5--5--5--5--5--5--5-------8--8--8--8--8---------x-x------------xx--------------xx--- 
A-----5--5--5--5--5--5--5--5--5-------8--8--8--8--8---------x-x------------xx--------------xx--- 
E-----3--3--3--3--3--3--3--3--3-------6--6--6--6--6---------x-x------------xx--------------xx--- 

Chorus 

E----------------------------------------------------------------------------------------- 
B----------------------------------------------------------------------------------------- 
G-----7--7--7--7--7--7----5--5--5--5--5--5-----3--3--3--3--3--3------5--5--5--5--5--5----- 
D-----7--7--7--7--7--7----5--5--5--5--5--5-----3--3--3--3--3--3------5--5--5--5--5--5----- 
A-----5--5--5--5--5--5----3--3--3--3--3--3-----1--1--1--1--1--1------3--3--3--3--3--3----- 
E----------------------------------------------------------------------------------------- 



E------------------------------------------------------------------------------------------------------------------0--0--0------------0--0--0--- 
B------------------------------------------------------------------------------------------------------------------3--3--3------------3--3--3--- 
G-----7--7--7--7--7--7----5--5--5--5--5--5-----3--3------5--5-------7--7--------3--3------5--5----7--7-------------2--2--2------------2--2--2--- 
D-----7--7--7--7--7--7----5--5--5--5--5--5-----3--3------5--5-------7--7--------3--3------5--5----7--7---------0---0--0--0--------0---0--0--0--- 
A-----5--5--5--5--5--5----3--3--3--3--3--3-----1--1------3--3-------5--5--------1--1------3--3----5--5------------------------------------------ 
E----------------------------------------------------------------------------------------------------------------------------------------------- 

Verse 2 

Pre Chorus 

Chorus 

Bridge 


E---------------------------------------------------------------------------------------------------------------------------------------------- 
B---------------------------------------------------------------------------------------------------------------------------------------------- 
G---------------------------------------------------------------------------------------------------------------------------------------------- 
D----------8--8--8------10---10---10-------8--8--8-------10--10--10-------8--8--8--------10---10---10----------12---12---12--------8--8--8----- 
A----------8--8--8------10---10---10-------8--8--8-------10--10--10-------8--8--8--------10---10---10----------12---12---12--------8--8--8----- 
E-----6----6--6--6---8---8----8----8---6---6--6--6---8---8----8---8---6---6--6--6---8----8----8-----8----------10---10---10--------6--6--6----- 


E-------------0---0---0------------------------------------------------------------------ 
B-------------3---3---3------------------------------------------------------------------ 
G-------------2---2---2------x7-------------------3--3--3---------------------5--5--5---- 
D--------0----0---0---0---------------------------3--3--3---------------------5--5--5---- 
A---------------------------------------------1---1--1--1----------------3----3--3--3---- 
E---------------------------------------------------------------------------------------- 

Chorus 

Chorus 

End on D 


Compartilhe esta música: novo

QR Code
Copiar