Nightmares

Jay Reatard


Intro 
e|---------------------------------------------------| 
B|---------------------------------------------------| 
G|----------------------55----77-44-55---------------| 
D|--5555-2222-5555-2222-55-77-77-44-55-77------------| 
A|--5555-2222-5555-2222-33-77-55-22-33-77------------| 
E|--3333-0000-3333-0000----55----------55------------| 

Verse 1 
e|----------------------------------| 
B|----------------------------------| 
G|----------------------------------| 
D|---5------------------------------| 
A|---5------------------------------| 
E|---3------------------------------| 
     Woke from my sleep last night 
e|----------------------------------| 
B|----------------------------------| 
G|----------------------------------| 
D|---2------------------------------| 
A|---2------------------------------| 
E|---0------------------------------| 
     All sweating with quite a fright 
e|----------------------------------| 
B|----------------------------------| 
G|----------------------------------| 
D|---5------------------------------| 
A|---5------------------------------| 
E|---3------------------------------| 
     Looked to see if you're next to me 
e|----------------------------------| 
B|----------------------------------| 
G|----------------------------------| 
D|---2------------------------------| 
A|---2------------------------------| 
E|---0------------------------------| 
     Somehow I knew you wouldn't be 

Bridge 
e|----------------------------------| 
B|----------------------------------| 
G|----5-----------------------------| 
D|----5--------------------7--------| 
A|----3--------------------7--------| 
E|-------------------------5--------| 
     Seems that my dreams only come true 
e|----------------------------------| 
B|----------------------------------| 
G|----7-----------------------------| 
D|----7-----------------4-----------| 
A|----5-----------------4-----------| 
E|----------------------2-----------| 
     When my dreams are all about you 
e|-------------------------------------| 
B|-------------------------------------| 
G|----5--------------------------------| 
D|----5--------------7-----------------| 
A|----3--------------7-----------------| 
E|-------------------5-----------------| 
     Nightmares you oh you bring me 

Chorus x4 
e|----------------------------------| 
B|----------------------------------| 
G|---12-----------------------------| 
D|---12-----------------------------| 
A|---10-----------------------------| 
E|----------------------------------| 
     I'll keep searching for you 
e|----------------------------------| 
B|----------------------------------| 
G|----------------------------------| 
D|---12-----------------------------| 
A|---12-----------------------------| 
E|---10-----------------------------| 
     I'll keep searching for you 

Bridge 
e|---------------------------------------------------| 
B|---------------------------------------------------| 
G|----------------------55----77-44-55---------------| 
D|--5555-2222-5555-2222-55-77-77-44-55-77------------| 
A|--5555-2222-5555-2222-33-77-55-22-33-77------------| 
E|--3333-0000-3333-0000----55----------55------------|  

Compartilhe esta música: novo

QR Code
Copiar