Nos temos

Javé Shalon

Tom: Dm
Solo 1 
E/--5------------8-6-----------------------------6-7-6-------------------------14b-1210----/E 
B/----3-5-5/7-6-------8-6-------------6-7-9b-----------7-6-----------14-12-----------11-10-/B 
G/-3------------------------8-6-6-7b--------------------------7-6/12-----------------------/G 
D/-----------------------------------------------------------------------------------------/D 
A/-----------------------------------------------------------------------------------------/A 
E/-----------------------------------------------------------------------------------------/E 
 
Cont. Solo 1 
E/---------------9-7-----------------------/E 
B/--------------------8-7------------------/B 
G/-11-10-10/7-----------8-7-7/5-5b---------/G 
D/-----------------------------------------/D 
A/-----------------------------------------/A 
E/-----------------------------------------/E 
 
 
Solo 2 
 
E/-10-------------------------------------13-12b-14b-12--------13-12-12-------------------/E 
B/----11-10----------------------13-12-------------------13-12--------------13-12---------/B 
G/-------------11-10-11/13-12-------------------------------------------------------13-12-/G 
D/----------------------------------------------------------------------------------------/D 
A/----------------------------------------------------------------------------------------/A 
E/----------------------------------------------------------------------------------------/E 
 
Cont. Solo 2 
E/-----13-12-/E 
B/-12--------/B 
G/-----------/G 
D/-----------/D 
A/-----------/A 
E/-----------/E 

Compartilhe esta música: novo

QR Code
Copiar