Now Or Never

Jason Dunn

 Intro and first Verse: 
e---------------------------------- 
B---------------------------------- 
G----1---1---1---1---1---1---1---1- 
D---2---2---2---2---2---2---2---2-- x6 
A--2---2---2---2---0---0---0---0--- 
E---------------------------------- 
   
 Pre-Chorus 
e--0--0---0-0-0-0--0---0-0-0-0--0---0-0-0-0---0-0 
B--0--0---0-0-0-0--0---0-0-0-0--0---0-0-0-0---0-0 
G--8--8---8-8-8-8--8---8-8-8-6--6---6-6-6-6---6-6 
D--9--9---9-9-9-9--9---9-9-9-7--7---7-7-7-7---7-7 
A--9--9---9-9-9-9--9---9-9-9-7--7---7-7-7-7---7-7 
E--0--0---0-0-0-0--0---0-0-0-0--0---0-0-0-0---0-0 

Chorus: 
e-0--0---0-0-0-0--0---0-0-0-0--0---0-0-0-0--0---0-0-0-0--0---0-0-0-0--0---0-0-0-0--0---0-0-0-0--0---0-0-0 
B-0--0---0-0-0-0--0---0-0-0-0--0---0-0-0-0--0---0-0-0-0--0---0-0-0-0--0---0-0-0-1--1---1-1-1-1--1---1-1-1 
G-1--1---1-1-1-1--1---1-1-1-1--1---1-1-1-1--1---1-1-1-1--1---1-1-1-1--1---1-1-1-2--2---2-2-2-2--2---2-2-2 
D-2--2---2-2-2-2--2---2-2-2-2--2---2-2-2-2--2---2-2-2-2--2---2-2-2-2--2---2-2-2-2--2---2-2-2-2--2---2-2-2 
A-2--2---2-2-2-2--2---2-2-2-0--0---0-0-0-0--0---0-0-0-0--0---0-0-0-0--0---0-0-0-0--0---0-0-0-0--0---0-0-0 
E-0--0---0-0-0-0--0---0-0-0-0--0---0-0-0-0--0---0-0-0-1--1---1-1-1-1--1---1-1-1-x--x---x-x-x-x--x---x-x-x 

He plays this part directly after the first Chorus and right before the second Verse: 
e-000-0-0-------------000-0-0------------ 
B-000-0-0-------------000-0-0------------ 
G-111-1-1---1---1---1-111-1-1---1---1---1 
D-222-2-2--2---2---2--222-2-2--2---2---2- x2 
A-222-2-2-2---2---2---222-2-2-0---0---0-- 
E-000-0-0-------------000-0-0------------ 

Second Verse: 
e---------------------------------- 
B---------------------------------- 
G----1---1---1---1---1---1---1---1- 
D---2---2---2---2---2---2---2---2-- x4 
A--2---2---2---2---0---0---0---0--- 
E---------------------------------- 

Pre-Chorus x1 

Chorus x2 

Bridge: 
e-0--0--0-0-0-0-0--0--0-0-0-0-0--0--0-0-0-0-0--0--0-0-0-0-0--0--0-0-0-0-0--0--0-0-0-0-0--0--0-0-0-0-0--0--0-0-0-0-0 
B-0--0--0-0-0-0-0--0--0-0-0-0-0--0--0-0-0-0-0--0--0-0-0-0-0--0--0-0-0-0-0--0--0-0-0-0-0--0--0-0-0-0-0--0--0-0-0-0-0 
G-2--2--2-2-2-2-2--2--2-2-2-2-6--6--6-6-6-6-6--6--6-6-6-6-1--1--1-1-1-1-1--1--1-1-1-1-8--8--8-8-8-8-8--8--8-8-8-8-8 
D-4--4--4-4-4-4-4--4--4-4-4-4-7--7--7-7-7-7-7--7--7-7-7-7-2--2--2-2-2-2-2--2--2-2-2-2-9--9--9-9-9-9-9--9--9-9-9-9-9 x2 
A-4--4--4-4-4-4-4--4--4-4-4-4-7--7--7-7-7-7-7--7--7-7-7-7-2--2--2-2-2-2-2--2--2-2-2-2-9--9--9-9-9-9-9--9--9-9-9-9-9 
E-0--0--0-0-0-0-0--0--0-0-0-0-0--0--0-0-0-0-0--0--0-0-0-0-0--0--0-0-0-0-0--0--0-0-0-0-0--0--0-0-0-0-0--0--0-0-0-0-0 


e---------------------------------- 
B---------------------------------- 
G----1---1---1---1---1---1---1---1- 
D---2---2---2---2---2---2---2---2-- x2 
A--2---2---2---2---0---0---0---0--- 
E---------------------------------- 

Chorus x3 

Ending: 
e-0--0---0-0-0-0--0---0-0-0-0--0---0-0-0-0--0---0-0-0-0--0---0-0-0-0--0---0-0-0-0 
B-0--0---0-0-0-0--0---0-0-0-0--0---0-0-0-0--0---0-0-0-0--0---0-0-0-0--0---0-0-0-1 
G-1--1---1-1-1-1--1---1-1-1-1--1---1-1-1-1--1---1-1-1-1--1---1-1-1-1--1---1-1-1-2 
D-2--2---2-2-2-2--2---2-2-2-2--2---2-2-2-2--2---2-2-2-2--2---2-2-2-2--2---2-2-2-2 
A-2--2---2-2-2-2--2---2-2-2-0--0---0-0-0-0--0---0-0-0-0--0---0-0-0-0--0---0-0-0-0 
E-0--0---0-0-0-0--0---0-0-0-0--0---0-0-0-0--0---0-0-0-1--1---1-1-1-1--1---1-1-1-x 

Compartilhe esta música: novo

QR Code
Copiar