Talullah

Jamiroquai

Tom: D
                   June 2005. 


      Tabbed by:PJVillanueva 


    Instrumental INTRO  

                                   
  D7sus2                          Gm9 
e|------- ------- ------- 8------|5------ ------- ------- -------| 
 
B|5-----------------------5------|6------------------------------| 
G|5-----------------------5------|3------------------------------| 
D|7-----------------------7------|3------------------------------| 
A|5------------------------------|-------------------------------| 
E|-------------------------------|3------------------------------| 
 

e/5--/5-- ------- ------- -------/5--/5-- ------- ------- -------| 
 
B|--------------6---6---------6--|----------6---6-------------6--| 
G|----------7-----7-------7-----7|------------7-----------7-----7| 
D|-------------------------------|-------------------------------| 
A|-------------------------------|-------------------------------| 
E|-------------------------------|-------------------------------| 
 




  Gm7+          Gm7/5+             D13-           D#m6/D 
e|2------ ------3 ------- -------|5------ ------6 ------- -------| 
B|3-------------4----------------|7-------------4----------------| 
G|3-------------3----------------|7-------------5----------------| 
D|3-------------3----------------|8-------------4----------------| 
A|-------------------------------|--------------5----------------| 
E|3-------------3----------------|-------------------------------| 
  T 
e/5-8---8 --8---8 ----6-- 8---6--|------- ------- ------- -------| 
 
B|-------------------------------|--------------9\8---6----------| 
G|-------------------------------|------------------7---------7-5| 
D|-------------------------------|-------------------------------| 
A|-------------------------------|-------------------------------| 
E|-------------------------------|-------------------------------| 
 




  D7sus2                          G7sus4 
e|------- ------- ------- 8------|8------ ------- ------- -------| 
 
B|5-----------------------5------|6------------------------------| 
G|5-----------------------5------|7-----------------------7------| 
D|7-----------------------7------|5------------------------------| 
A|5------------------------------|-------------------------------| 
E|-------------------------------|-------------------------------| 
 

e|10-\--- ------- -------/12--13-|10-\--- ------- ------- ------8| 
 
B|---------------------10--------|-------------------------------| 
G|-------------------------------|-------------------------------| 
D|-------------------------------|-------------------------------| 
A|-------------------------------|-------------------------------| 
E|-------------------------------|-------------------------------| 
 




  Gm7+          Gm7/5+             D13-           D7sus4 
e|2------ ------3 ------- -------|5------ -----10 ------- -------| 
 
B|3-------------4----------------|7------------13----------------| 
G|3-------------3----------------|7------------12----------------| 
D|3-------------3----------------|8-------------0----------------| 
A|-------------------------------|-------------------------------| 
E|3-------------3----------------|-------------------------------| 
 
  T 
e|10-8-10 \------ ------- ---1013|-10---- ------- ------- -------| 
 
B|-------------------------13----|-------------------------------| 
G|-------------------------------|-------------------------------| 
D|-------------------------------|-------------------------------| 
A|-------------------------------|-------------------------------| 
E|-------------------------------|-------------------------------| 
 





    VERSE 


  D7sus4                          Gm7 
e|5------ ------- ------- -------|------- ------- ------- -------| 
 
B|8------------------------------|6------------------------------| 
G|5------------------------------|3------------------------------| 
D|7------------------------------|3------------------------------| 
A|5------------------------------|5------------------------------| 
E|-------------------------------|3------------------------------| 
 
   
e|------- ------- ------- -------|------- ------- ------- -------| 
 
B|-------------------------------|-------------------------------| 
G|--------------5-------5-------5|------3-------3-------3-------3| 
D|------------3-------3-------3--|----3-------3-------3-------3--| 
A|----------5-------5-------5----|--5-------5-------5-------5----| 
E|-------------------------------|-------------------------------| 
 
  She's                   gone away  



                A7                Gm7           A7 
e|------- ------- ------- -------|------- ------- ------- -------| 
 
B|3-------------2----------------|3-------------2----------------| 
G|3-------------0----------------|3-------------0----------------| 
D|3-------------2----------------|3-------------2----------------| 
A|--------------0----------------|--------------0----------------| 
E|3------------------------------|3------------------------------| 
 
   
e|------- ------- ------- -------|------- ------- ------- -------| 
 
B|-------------------------------|-------------------------------| 
G|------7-------7-------6-------6|------7-------7-------6-------6| 
D|----5-------5-------5-------5--|----5-------5-------5----------| 
A|7-7-------7-------7-------7----|--7-------7-------7-------7-4--| 
E|-------------------------------|-------------------------------| 
 
  Flying out              on a jet   plane  



  Dm7                             Gm7 
e|------- ------- ------- -------|------- ------- ------- -------| 
 
B|6------------------------------|3------------------------------| 
G|5------------------------------|3------------------------------| 
D|7------------------------------|3------------------------------| 
A|5------------------------------|-------------------------------| 
E|-------------------------------|3------------------------------| 
 
   
e|------- ------- ------- -------|------- ------- ------- -------| 
 
B|-------------------------------|-------------------------------| 
G|------5-------5-------5-------5|------3-------3-------3-------3| 
D|----3-------3-------3-------3--|----3-------3-------3-------3--| 
A|--5-------5-------5-------5----|--5-------5-------5-------5----| 
E|-------------------------------|-------------------------------| 
 
  Told me,    she won't be back again                           and 



                A7                Gm7           A7 
e|------- ------0 ------- -------|------- ------- ------- -------| 
 
B|3-------------2----------------|3-------------2----------------| 
G|3-------------0----------------|3-------------0----------------| 
D|3-------------2----------------|3-------------2----------------| 
A|--------------0----------------|--------------0----------------| 
E|3------------------------------|3------------------------------| 
 
   
e|------- ------- ------- -------|------- ------- ------- -------| 
 
B|-------------------------------|-------------------------------| 
G|------7-------7-------6-------6|------7-------7-------6-------6| 
D|----5-------5-------5-------5--|----5-------5-------5-------5--| 
A|--7-------7-------7-------7----|--7-------7-------7-------7----| 
E|-------------------------------|-------------------------------| 
 




    Chorus 


  Dm7                             Gm7 
e|------- ------- ------- -------|------- ------- ------- -------| 
 
B|6-------6---6-----------6------|3-------3---3-----------3------| 
G|5-------5---5-----------5------|3-------3---3-----------3------| 
D|7-------7---7-----------7------|3-------3---3-----------3------| 
A|5-------5---5-----------5------|-------------------------------| 
E|-------------------------------|3-------3---3-----------3------| 
 
   
e|------- ------- ------- -------|------- ------- ------- -------| 
B|------6---6---8--10---8---6/8--|-6---6----6---8--10---8---6/8--| 
G|------5---7---9--10---9---7/9--|-7---5----7---6-------9---7/9--|   
D|------7------------------------|-7---7----7---7----------------| 
A|-------------------------------|-------------------------------| 
E|-------------------------------|-------------------------------| 



                          A7      Gm7               A7 
e|------- ------- ------- -------|------- ------- ------- -------| 
 
B|3-------3---3-----------2------|3-------3---3-----2-----2------| 
G|3-------3---3-----------0------|3-------3---3-----0-----0------| 
D|3-------3---3-----------2------|3-------3---3-----2-----2------| 
A|------------------------0------|------------------0-----0------| 
E|3-------3---3------------------|3-------3---3------------------| 
 
    
e|------- ------- ------- -------|------- ------- ------- -------| 
B|----------8---8--10---8--10\8--|----------8---8--10---8--10\8--| 
G|-7---5----7---6-------6--------|-7---5----7---6-------6--------|   
D|----------7---7-------7--------|----------7---7-------7--------| 
A|-------------------------------|-------------------------------| 
E|-------------------------------|-------------------------------| 
  missing you                                             Baby I  
                                                              got to       


  Dm7                             Gm7 
e|------- ------- ------- -------|------- ------- ------- -------| 
 
B|6-------6---6-----------6------|3-------3---3-----------3------| 
G|5-------5---5-----------5------|3-------3---3-----------3------| 
D|7-------7---7-----------7------|3-------3---3-----------3------| 
A|5-------5---5-----------5------|-------------------------------| 
E|-------------------------------|3-------3---3-----------3------| 
 
  
e|------- ------- ------- -------|------- ------- ------- -------| 
B|----------6---8---8---8---6/8--|----------6---8--10---8---6/8--| 
G|------5---7---9---9---9---7/9--|-7---5----7---9-------9---7/9--|   
D|----------7---7---7------------|----------7---7-------7--------| 
A|-------------------------------|-------------------------------| 
E|-------------------------------|-------------------------------| 
  stop    plane   Turn     I still                Tell the  
     that            it around,   love you, babe        captain that 


                          A7      Gm7               A7 
e|------- ------- ------- -------|------- ------- ------- -------| 
 
B|3-------3---3-----------2------|3-------3---3-----2-----2------| 
G|3-------3---3-----------0------|3-------3---3-----0-----0------| 
D|3-------3---3-----------2------|3-------3---3-----2-----2------| 
A|------------------------0------|------------------0-----0------| 
E|3-------3---3------------------|3-------3---3------------------| 
 
                                             
e|------- ------- ------- -------|------- ------- ------- -------| 
B|----------8---8---8---8--10\8--|----------8---8---8---8---6/8--| 
G|-7---5----7---6---6---6---6----|-7---5----7---6---6---6---6----|   
D|----------7---7---7---7---7----|----------7---7---7---7---7----| 
A|-------------------------------|-------------------------------| 
E|-------------------------------|-------------------------------| 
  I'm to  blame           I'm to  blame 





   MIDDLE EIGHT                                       There's a hole 


e|------- ------- ------- -------|------- ------- ------- -------| 
 
B|6------------------------------|3------------------------------| 
G|7------------------------------|3------------------------------| 
D|7------------------------------|3------------------------------| 
A|-------------------------------|-------------------------------| 
E|6------------------------------|3------------------------------| 
 
   in my soul             And I'm   control                 and  
                               losing                        it's not 
                 (There's in my soul..............think lose control) 
                     a hole                          I'm gonna 

e|------- ------- ------- -------|------- ------- ------- -------| 
 
B|3------------------------------|5------------------------------| 
G|4------------------------------|6------------------------------| 
D|3------------------------------|5------------------------------| 
A|-------------------------------|7------------------------------| 
E|4------------------------------|5------------------------------| 
 
    too late for you to be my magic star   Cannot see now  
                                                        babe I'm so  



e|------- ------- ------- -------|------- ------- ------- -------| 
 
B|6------------------------------|3------------------------------| 
G|7------------------------------|3------------------------------| 
D|7------------------------------|3------------------------------| 
A|-------------------------------|-------------------------------| 
E|6------------------------------|3------------------------------| 
 
   sad and                I think   midnight               and it's  
      teared                I'm your      hare                 still 
                 (Now     sad and                 Think   
                    I'm so     teared...............I'm not 
                                                      your midnight hare) 

e|------- ------- ------- -------|------- ------- ------- -------| 
 
B|3------------------------------|5------------------------------| 
G|4------------------------------|6------------------------------| 
D|3------------------------------|5------------------------------| 
A|-------------------------------|7------------------------------| 
E|4------------------------------|5------------------------------| 
 
   the same 'cause   my brain        that way to  see my  baby 
               you're     Gotta   stop      come and 
                 round 



    CODA 


e|5------ ------- ------- -------|------- ------- ------- -------| 
 
B|5------------------------------|3------------------------------| 
G|5------------------------------|3------------------------------| 
D|7------------------------------|3------------------------------| 
A|5------------------------------|-------------------------------| 
E|-------------------------------|3------------------------------| 
 

e|------- ------- ------- -------|------- ------- ------- -------| 
 
B|----------------------------3--|----6-------6-------6-------6--| 
G|----5-------5-------5----------|--3---3---3---3---3---3---3---3| 
D|--3---3---3---3---3---3---3---3|5-------5-------5-------5------| 
A|5-------5-------5-------5------|-------------------------------| 
E|-------------------------------|-------------------------------| 
 

e|------- ------- ------- -------|--8---8 --8---8 \--5--5 --5----| 
 
B|--8---8---8---8---8---8---8----|-10--10--10--10-\--6--6---6---6| 
G|--9---9---9---9---9---9---9----|-------------------------------| 
D|-------------------------------|-------------------------------| 
A|-------------------------------|-------------------------------| 
E|-------------------------------|-------------------------------| 
 





e|------- ------- ------- -------|------- ------- ------- -------| 
 
B|5------------------------------|3------------------------------| 
G|5------------------------------|3------------------------------| 
D|7------------------------------|3------------------------------| 
A|5------------------------------|-------------------------------| 
E|-------------------------------|3------------------------------| 
 

e|------- ------- ------- -------|------- ------- ------- -------| 
 
B|----------------------------3--|----6-------6-------6-------6--| 
G|----5-------5-------5----------|--3---3---3---3---3---3---3---3| 
D|--3---3---3---3---3---3---3---3|5-------5-------5-------5------| 
A|5-------5-------5-------5------|-------------------------------| 
E|-------------------------------|-------------------------------| 
 

e|------- ------- ------- -------|--8---8 --8---8 --8---8 \-5-5-5| 
 
B|--8---8---8---8---8---8---8-8-8|-10--10--10--10--10--10-\-6-6-6| 
G|--9---9---9---9---9---9---9-9-9|-------------------------------| 
D|-------------------------------|-------------------------------| 
A|-------------------------------|-------------------------------| 
E|-------------------------------|-------------------------------| 
 





e|------- ------- ------- -------|------- ------- ------- -------| 
 
B|5------------------------------|3------------------------------| 
G|5------------------------------|3------------------------------| 
D|7------------------------------|3------------------------------| 
A|5------------------------------|-------------------------------| 
E|-------------------------------|3------------------------------| 
 

e|------- ------- ------- -------|------- ------- ------- -------| 
 
B|----------------------------3--|----6-------6-------6-------6--| 
G|----5-------5-------5----------|--3---3---3---3---3---3---3---3| 
D|--3---3---3---3---3---3---3---3|5-------5-------5-------5------| 
A|5-------5-------5-------5------|-------------------------------| 
E|-------------------------------|-------------------------------| 
 

e|------- ------- ------- -------|--8---8 --8---8 --8---8 --8----| 
 
B|--8---8---8---8---8---8---8----|-10--10--10--10--10--10--10-\--| 
G|--9---9---9---9---9---9---9-9-\|-------------------------------| 
D|-------------------------------|-------------------------------| 
A|-------------------------------|-------------------------------| 
E|-------------------------------|-------------------------------| 
 





e|------- ------- ------- -------|------- ------- ------- -------| 
 
B|5------------------------------|3------------------------------| 
G|5------------------------------|3------------------------------| 
D|7------------------------------|3------------------------------| 
A|5------------------------------|-------------------------------| 
E|-------------------------------|3------------------------------| 
 

e|------- ------- ------- -------|------- ------- ------- -------| 
 
B|----------------------------3--|----6-------6-------6-------6--| 
G|----5-------5-------5----------|--3---3---3---3---3---3---3---3| 
D|--3---3---3---3---3---3---3---3|5-------5-------5-------5------| 
A|5-------5-------5-------5------|-------------------------------| 
E|-------------------------------|-------------------------------| 
 

e|------- ------- ------- -------|--8---8 --8---8 --8---8 --8----| 
 
B|--8---8---8---8---8---8---8----|-10--10--10--10--10--10--10-\--| 
G|--9---9---9---9---9---9---9-9-\|-------------------------------| 
D|-------------------------------|-------------------------------| 
A|-------------------------------|-------------------------------| 
E|-------------------------------|-------------------------------| 
 


                                                               .......... 







        B  Bend 
        R  Release 
        /  Slide up 
        \  Slide down 
        H  Hammer-on 
        P  Pull-off 
        ~  Vibrato 
        +  Harmonic 
        x  Mute note 
        .  Play note like a dot in standard notation 
        ^  Ties two notes together 
        (. Pause 
        T  Thumb 

Compartilhe esta música: novo

QR Code
Copiar