Better Together

Jack Johnson

Tom: F
Verse 
      F        F        Dm       C     A#/Bb   A#/Bb     G       C 
|-----8--------8--------5--------3-------6-------6-------3-------8---| 
|-----10-------10-------6--------5-------6-------6-------3-------8---| 
|-----10-------10-------7--------5-------7-------7-------4-------9---| 
|-----10-------10-------7--------5-------8-------8-------5-------10--| 
|--8---------7--------5--------3---------8-------8-------5-------10--| 
|--------------------------------------6-------5-------3-------8-----| 
 
Chorus 
   A#/Bb     C    
|----6-------8----| 
|----6-------8----| 
|----7-------9----| 
|----8-------10---| 
|----8-------10---| 
|--6-------8------| 
 
Bridge 
     G        C 
|----3--------3----| 
|----3--------5----| 
|----4--------5----| 
|----5--------5----| 
|----5------3------| 
|--3---------------| 
 
There's no combination of words that I could put on the back of a postcard 
 
No song that I could sing but I can try for your heart 
 
Our dreams and they are made out of real things ,like 
 
a shoebox of photographs and sepia-toned loving 
 
Love is the answer at least for most of the questions in my heart 
 
why are we here and where do we go and how come its so hard? 
 
Its not always easy   and sometimes life can be deceiving 
 
I'll tell you one thing    it's always better when we're together 
 
 
Chorus:  
 
mmmmm it's always better when we're together 
 
Yeah we'll look at the stars when we're together 
 
Well it's always better when we're together 
 
Yeah it's always better when we're together. 
 
Verse: 
 
And all of these moments just might find their way into my dreams tonight, 
 
But I know that they'll be gone when the morning light sings,  
 
Or brings new things        for tomorrow night you'll see  
 
That they'll be gone too too many things I have to do. 
 
But if all of these dreams might find their way into my day to day scene 
 
I'd be under the impression I was somewhere in between  
 
With only two just me and you now so many things we got to do,  
 
or places we got to be we'll sit beneath the mango tree now 
 
Chorus: 
Yeah it's always better when we're always together 
Mmhh we're somewhere in between together 
Well it's always better when we're together 
Yeah it's always better when we're together 
 
mmmhhh mmmmhhh... 
 
Bridge: 
 
I believe in memories they look so, so pretty when I sleep, hey now  
 
 
And when I wake up you look so pretty sleeping next to me but there is 
 
not enough time. There is no, no song I could sing and there is no 
 
combination of words I could say but I will still tell you one thing 
 
we're better together. 

Compartilhe esta música: novo

QR Code
Copiar