Obsession

Jack Bruce

Tom: Dm
  Intro 
    bridge p/u with palm muting 
                     ~~~~                ~~~~  ~~~          
     (Dm) 
e|---------------------|-------------------|---------------|----------------------| 
B|---------------------|-------------------|---------------|----------------------| 
G|---------------------|-------------------|---------------|----------------------| 
D|---------------------|--5----------------|---------------|----------------------| 
A|----5--5--5--7----8--|-----5--5--5----7--|--8----7--5----|-------3--5--5--3--5--| 
E|---------------------|-------------------|---------------|--5-------------------| 


                     ~~~~                ~~~~  ~~~          
     (Dm) 
e|---------------------|-------------------|---------------|----------------------| 
B|---------------------|-------------------|---------------|----------------------| 
G|---------------------|-------------------|---------------|----------------------| 
D|---------------------|--5----------------|---------------|----------------------| 
A|----5--5--5--7----8--|-----5--5--5----7--|--8----7--5----|-------3--5--5--3--5--| 
E|---------------------|-------------------|---------------|--5-------------------| 

  verse 1 
                     ~~~~                ~~~~  ~~~ 
     (Dm) 
e|---------------------|-------------------|---------------|----------------------| 
B|---------------------|-------------------|---------------|----------------------| 
G|---------------------|-------------------|---------------|----------------------| 
D|---------------------|--5----------------|---------------|----------------------| 
A|----5--5--5--7----8--|-----5--5--5----7--|--8----7--5----|-------3--5--5--3--5--| 
E|---------------------|-------------------|---------------|--5-------------------| 


                     ~~~~                ~~~~  ~~~ 
     (Dm) 
e|---------------------|-------------------|---------------|----------------------| 
B|---------------------|-------------------|---------------|----------------------| 
G|---------------------|-------------------|---------------|----------------------| 
D|---------------------|--5----------------|---------------|----------------------| 
A|----5--5--5--7----8--|-----5--5--5----7--|--8----7--5----|-------3--5--5--3--5--| 
E|---------------------|-------------------|---------------|--5-------------------| 


                     ~~~~                ~~~~  ~~~ 
     (Gm) 
e|---------------------|-------------------|---------------|-------------------------| 
B|---------------------|-------------------|---------------|-------------------------| 
G|---------------------|--5----------------|---------------|-------------------------| 
D|----5--5--5--7----8--|-----5--5--5----7--|--8----7--5----|-------3--5--5--3--5--3--| 
A|---------------------|-------------------|---------------|--5----------------------| 
E|---------------------|-------------------|---------------|-------------------------| 


                     ~~~~                ~~~~  ~~~ 
     (Dm) 
e|---------------------|-------------------|---------------|----------------------| 
B|---------------------|-------------------|---------------|----------------------| 
G|---------------------|-------------------|---------------|----------------------| 
D|---------------------|--5----------------|---------------|----------------------| 
A|----5--5--5--7----8--|-----5--5--5----7--|--8----7--5----|-------3--5--5--3--5--| 
E|---------------------|-------------------|---------------|--5-------------------| 



     (Am)                                       E    D    C             A  C  C# 
e|---------------------|---------------------|-------------------|---------------| 
B|---------------------|---------------------|-------------------|---------------| 
G|---------------------|---------------------|-------------------|---------------| 
D|---------------------|---------------------|--9----7----5------|------2--5--6--| 
A|----5----------------|---------------------|--7----5----3------|------0--3--4--| 
E|-------5--5--5----7--|--8--7--5----3----2--|-------------------|---------------| 


                     ~~~~                ~~~~   
     (Dm)                                     F    E         D 
e|---------------------|-------------------|--------------|---------------| 
B|---------------------|-------------------|--------------|---------------| 
G|---------------------|-------------------|--------------|---------------| 
D|---------------------|--5----------------|--10---9------|--7------------| 
A|----5--5--5--7----8--|-----5--5--5----7--|--8----7------|--5------------| 
E|---------------------|-------------------|--------------|---------------| 

  verse 2 
                     ~~~~                ~~~~  ~~~ 
     (Dm) 
e|---------------------|-------------------|---------------|----------------------| 
B|---------------------|-------------------|---------------|----------------------| 
G|---------------------|-------------------|---------------|----------------------| 
D|---------------------|--5----------------|---------------|----------------------| 
A|----5--5--5--7----8--|-----5--5--5----7--|--8----7--5----|-------3--5--5--3--5--| 
E|---------------------|-------------------|---------------|--5-------------------| 


                     ~~~~                ~~~~  ~~~ 
     (Dm) 
e|---------------------|-------------------|---------------|----------------------| 
B|---------------------|-------------------|---------------|----------------------| 
G|---------------------|-------------------|---------------|----------------------| 
D|---------------------|--5----------------|---------------|----------------------| 
A|----5--5--5--7----8--|-----5--5--5----7--|--8----7--5----|-------3--5--5--3--5--| 
E|---------------------|-------------------|---------------|--5-------------------| 


                     ~~~~                ~~~~  ~~~ 
     (Gm) 
e|---------------------|-------------------|---------------|-------------------------| 
B|---------------------|-------------------|---------------|-------------------------| 
G|---------------------|--5----------------|---------------|-------------------------| 
D|----5--5--5--7----8--|-----5--5--5----7--|--8----7--5----|-------3--5--5--3--5--3--| 
A|---------------------|-------------------|---------------|--5----------------------| 
E|---------------------|-------------------|---------------|-------------------------| 


                     ~~~~                ~~~~  ~~~ 
     (Dm) 
e|---------------------|-------------------|---------------|----------------------| 
B|---------------------|-------------------|---------------|----------------------| 
G|---------------------|-------------------|---------------|----------------------| 
D|---------------------|--5----------------|---------------|----------------------| 
A|----5--5--5--7----8--|-----5--5--5----7--|--8----7--5----|-------3--5--5--3--5--| 
E|---------------------|-------------------|---------------|--5-------------------| 



     (Am)                                       E    D    C             A  C  C# 
e|---------------------|---------------------|-------------------|---------------| 
B|---------------------|---------------------|-------------------|---------------| 
G|---------------------|---------------------|-------------------|---------------| 
D|---------------------|---------------------|--9----7----5------|------2--5--6--| 
A|----5----------------|---------------------|--7----5----3------|------0--3--4--| 
E|-------5--5--5----7--|--8--7--5----3----2--|-------------------|---------------| 

  Guitar solo 
                     ~~~~                ~~~~   
     (Dm)                                     F    E         D 
e|---------------------|-------------------|--------------|---------------| 
B|---------------------|-------------------|--------------|---------------| 
G|---------------------|-------------------|--------------|---------------| 
D|---------------------|--5----------------|--10---9------|--7------------| 
A|----5--5--5--7----8--|-----5--5--5----7--|--8----7------|--5------------| 
E|---------------------|-------------------|--------------|---------------| 


                     ~~~~                ~~~~  ~~~ 
     (Dm) 
e|---------------------|-------------------|---------------|----------------------| 
B|---------------------|-------------------|---------------|----------------------| 
G|---------------------|-------------------|---------------|----------------------| 
D|---------------------|--5----------------|---------------|----------------------| 
A|----5--5--5--7----8--|-----5--5--5----7--|--8----7--5----|-------3--5--5--3--5--| 
E|---------------------|-------------------|---------------|--5-------------------| 


                     ~~~~                ~~~~  ~~~ 
     (Dm) 
e|---------------------|-------------------|---------------|----------------------| 
B|---------------------|-------------------|---------------|----------------------| 
G|---------------------|-------------------|---------------|----------------------| 
D|---------------------|--5----------------|---------------|----------------------| 
A|----5--5--5--7----8--|-----5--5--5----7--|--8----7--5----|-------3--5--5--3--5--| 
E|---------------------|-------------------|---------------|--5-------------------| 


                     ~~~~                ~~~~  ~~~ 
     (Gm) 
e|---------------------|-------------------|---------------|-------------------------| 
B|---------------------|-------------------|---------------|-------------------------| 
G|---------------------|--5----------------|---------------|-------------------------| 
D|----5--5--5--7----8--|-----5--5--5----7--|--8----7--5----|-------3--5--5--3--5--3--| 
A|---------------------|-------------------|---------------|--5----------------------| 
E|---------------------|-------------------|---------------|-------------------------| 


                     ~~~~                ~~~~  ~~~ 
     (Dm) 
e|---------------------|-------------------|---------------|----------------------| 
B|---------------------|-------------------|---------------|----------------------| 
G|---------------------|-------------------|---------------|----------------------| 
D|---------------------|--5----------------|---------------|----------------------| 
A|----5--5--5--7----8--|-----5--5--5----7--|--8----7--5----|-------3--5--5--3--5--| 
E|---------------------|-------------------|---------------|--5-------------------| 



     (Am)                                       E    D    C             A  C  C# 
e|---------------------|---------------------|-------------------|---------------| 
B|---------------------|---------------------|-------------------|---------------| 
G|---------------------|---------------------|-------------------|---------------| 
D|---------------------|---------------------|--9----7----5------|------2--5--6--| 
A|----5----------------|---------------------|--7----5----3------|------0--3--4--| 
E|-------5--5--5----7--|--8--7--5----3----2--|-------------------|---------------| 


                     ~~~~                ~~~~   
     (Dm)                                     F    E         D 
e|---------------------|-------------------|--------------|---------------| 
B|---------------------|-------------------|--------------|---------------| 
G|---------------------|-------------------|--------------|---------------| 
D|---------------------|--5----------------|--10---9------|--7------------| 
A|----5--5--5--7----8--|-----5--5--5----7--|--8----7------|--5------------| 
E|---------------------|-------------------|--------------|---------------| 

  verse 3 
                     ~~~~                ~~~~  ~~~ 
     (Dm) 
e|---------------------|-------------------|---------------|----------------------| 
B|---------------------|-------------------|---------------|----------------------| 
G|---------------------|-------------------|---------------|----------------------| 
D|---------------------|--5----------------|---------------|----------------------| 
A|----5--5--5--7----8--|-----5--5--5----7--|--8----7--5----|-------3--5--5--3--5--| 
E|---------------------|-------------------|---------------|--5-------------------| 


                     ~~~~                ~~~~  ~~~ 
     (Dm) 
e|---------------------|-------------------|---------------|----------------------| 
B|---------------------|-------------------|---------------|----------------------| 
G|---------------------|-------------------|---------------|----------------------| 
D|---------------------|--5----------------|---------------|----------------------| 
A|----5--5--5--7----8--|-----5--5--5----7--|--8----7--5----|-------3--5--5--3--5--| 
E|---------------------|-------------------|---------------|--5-------------------| 


                     ~~~~                ~~~~  ~~~ 
     (Gm) 
e|---------------------|-------------------|---------------|-------------------------| 
B|---------------------|-------------------|---------------|-------------------------| 
G|---------------------|--5----------------|---------------|-------------------------| 
D|----5--5--5--7----8--|-----5--5--5----7--|--8----7--5----|-------3--5--5--3--5--3--| 
A|---------------------|-------------------|---------------|--5----------------------| 
E|---------------------|-------------------|---------------|-------------------------| 


                     ~~~~                ~~~~  ~~~ 
     (Dm) 
e|---------------------|-------------------|---------------|----------------------| 
B|---------------------|-------------------|---------------|----------------------| 
G|---------------------|-------------------|---------------|----------------------| 
D|---------------------|--5----------------|---------------|----------------------| 
A|----5--5--5--7----8--|-----5--5--5----7--|--8----7--5----|-------3--5--5--3--5--| 
E|---------------------|-------------------|---------------|--5-------------------| 



     (Am)                                       E    D    C             A  C  C# 
e|---------------------|---------------------|-------------------|---------------| 
B|---------------------|---------------------|-------------------|---------------| 
G|---------------------|---------------------|-------------------|---------------| 
D|---------------------|---------------------|--9----7----5------|------2--5--6--| 
A|----5----------------|---------------------|--7----5----3------|------0--3--4--| 
E|-------5--5--5----7--|--8--7--5----3----2--|-------------------|---------------| 

 Outro solo 
                     ~~~~                ~~~~   
     (Dm)                                     F    E         D 
e|---------------------|-------------------|--------------|---------------| 
B|---------------------|-------------------|--------------|---------------| 
G|---------------------|-------------------|--------------|---------------| 
D|---------------------|--5----------------|--10---9------|--7------------| 
A|----5--5--5--7----8--|-----5--5--5----7--|--8----7------|--5------------| 
E|---------------------|-------------------|--------------|---------------| 


                     ~~~~                ~~~~  ~~~ 
     (Dm) 
e|---------------------|-------------------|---------------|----------------------| 
B|---------------------|-------------------|---------------|----------------------| 
G|---------------------|-------------------|---------------|----------------------| 
D|---------------------|--5----------------|---------------|----------------------| 
A|----5--5--5--7----8--|-----5--5--5----7--|--8----7--5----|-------3--5--5--3--5--| 
E|---------------------|-------------------|---------------|--5-------------------| 


                     ~~~~                ~~~~  ~~~ 
     (Dm) 
e|---------------------|-------------------|---------------|----------------------| 
B|---------------------|-------------------|---------------|----------------------| 
G|---------------------|-------------------|---------------|----------------------| 
D|---------------------|--5----------------|---------------|----------------------| 
A|----5--5--5--7----8--|-----5--5--5----7--|--8----7--5----|-------3--5--5--3--5--| 
E|---------------------|-------------------|---------------|--5-------------------| 

                          fade out 
                     ~~~~                ~~~~  ~~~ 
     (Gm) 
e|---------------------|-------------------|----------------|-------------------------| 
B|---------------------|-------------------|----------------|-------------------------| 
G|---------------------|--5----------------|----------------|-------------------------| 
D|----5--5--5--7----8--|-----5--5--5----7--|--8----7--5-----|-------3--5--5--3--5--3--| 
A|---------------------|-------------------|----------------|--5----------------------| 
E|---------------------|-------------------|----------------|-------------------------| 


                     ~~~~                ~~~~  ~~~ 
     (Dm) 
e|---------------------|-------------------|---------------|----------------------| 
B|---------------------|-------------------|---------------|----------------------| 
G|---------------------|-------------------|---------------|----------------------| 
D|---------------------|--5----------------|---------------|----------------------| 
A|----5--5--5--7----8--|-----5--5--5----7--|--8----7--5----|-------3--5--5--3--5--| 
E|---------------------|-------------------|---------------|--5-------------------| 



 

Compartilhe esta música: novo

QR Code
Copiar