Heaven Sent

INXS

Tom: B
Heaven Sent - INXS          (Recording slightly flat)
-----------
Intro:  (w/ high hat twice then into verse)
e-3-3-3-3-0-0-0-0-0-0-0-0-3-3-3-2-2-2-2-2-------
b-3-3-3-3-2-2-2-2-1-1-1-1-3-3-3-3-3-3-3-3-------
g-----------------------------------------------

Your eyes are like... deep wells of desire 	(ah-a-oh)
Once in your arms... I'm on fire 		(ah-a-oh)
You were sent girl so... perfectly true 	(ah-a-oh)
Changing my life now... I'm a survivor 		(ah-a-oh)

D-------------------------|----------------------------
A-----7-5-----------------|-------7-5------------------
E-0-------7-5-3---3-0-3-5-|--0---------7-5-3---3-0-3-5-
          Heaven sent             That's what I call you 
          Heaven sent             That's what I call you 


Late at night when the... evening fire has died 	(ah-a-oh)
There's a look in your eye... Seductive images fly 	(ah-a-oh)

D-------------------------|----------------------------
A-----7-5-----------------|-------7-5------------------
E-0-------7-5-3---3-0-3-5-|--0---------7-5-3---3-0-3-5-
          Heaven sent             That's what I call you 
          Heaven sent             That's what I call you 

B		Em    B                Em
One day you'll see... what angels can see 		
A
Dressed in black if she comes back 
  C		      D   D        (DRUMS)   (PICK SLIDE)
I think I'll lose my mind 	               

Tuesday she works In the... library uptown 		(ah-a-oh)
Some useful knowledge Can... always be found 		(ah-a-oh)
Don't burn the library Til you've... read all the books (ah-a-oh)
Sometimes in life You get... a second look		(ah-a-oh)

D-------------------------|----------------------------
A-----7-5-----------------|-------7-5------------------
E-0-------7-5-3---3-0-3-5-|--0---------7-5-3---3-0-3-5-
          Heaven sent             That's what I call you 
          Heaven sent             That's what I call you 
          Heaven sent             That's what I call you 
          Heaven sent             That's what I call you
	  Heaven sent		       Heaven Sent
				 (That's what I call you) 
	  Heaven sent		       Heaven Sent
				 (That's what I call you)

REPEAT INTRO OVER
Since you were mine
Well it's o-over
yeah yeah yeah yeah       END ON EM   (Pick slide out)

Compartilhe esta música: novo

QR Code
Copiar