My World My Way

Infest

RIFF #1 
e|---------------| 
B|---------------| 
G|---------------| 
D|---------------| 
A|--9--10----6---| 
E|--7--8-----4---| 


RIFF #2 
e|------------------------| 
B|------------------------| 
G|------------------------| 
D|--------9-11------------| 
A|--9-11--7-9--9-8--6-8---| 
E|--7-9--------7-6--4-6---| 

 

Compartilhe esta música: novo

QR Code
Copiar