Mainline

Hot Water Music

Tom: B
Intro 

Guitar #1 
e||------------------------------------| 
B||------------------------------------| 
G||-4-4-4-4-4---4-4-4-4-4-4---4-4-4-4--| 
D||-4-4-4-4-4---4-4-4-4-4-4---4-4-4-4--| 
A||-2-2-2-2-2---2-2-2-2-2-2---2-2-2-2--| 
E||------------------------------------| 

Guitar#2 
e||-----------------------------------------| 
B||-----------------------------------------| 
G||-----------------------------------------| 
D||-9-9-9-9-7-7-7-7-5-5-5-5-2-2-2-2-5-5-7-7-| 
A||-9-9-9-9-7-7-7-7-5-5-5-5-2-2-2-2-5-5-7-7-| 
E||-7-7-7-7-5-5-5-5-3-3-3-3-0-0-0-0-3-3-5-5-| x 3 

e||-------------------------| 
B||-------------------------| 
G||---------7-7-7-----------| 
D||-9-9-9-9-7-7-7-9---------| 
A||-9-9-9-9-5-5-5-9---------| 
E||-7-7-7-7-------7---------| 


Verse 

e||---------------------------------|---------------------------------| 
B||---------------------------------|---------------------------------| 
G||---------------------------------|---------------------------------| 
D||-9-9-9-9-9-9-9-9-2-2-2-2-2-2-2-2-|-9-9-9-9-9-9-9-9-2-2-2-2-2-2-2-2-| 
A||-9-9-9-9-9-9-9-9-2-2-2-2-2-2-2-2-|-9-9-9-9-9-9-9-9-2-2-2-2-2-2-2-2-| 
E||-7-7-7-7-7-7-7-7-0-0-0-0-0-0-0-0-|-7-7-7-7-7-7-7-7-0-0-0-0-0-0-0-0-| 

e||---------------------------------| 
B||---------------------------------| 
G||---------------------------------| 
D||-5-5-5-5-5-5-5-5-7-7-7-7-7-7-7-7-| 
A||-5-5-5-5-5-5-5-5-7-7-7-7-7-7-7-7-| 
E||-3-3-3-3-3-3-3-3-5-5-5-5-5-5-5-5-|   whole thing x 2 


Chorus 

e||---------------------------------| 
B||---------------------------------| 
G||---------------------------------| 
D||-9-9-9-9-2-2-2-2-5-5-5-5-7-7-7-7-| 
A||-9-9-9-9-2-2-2-2-5-5-5-5-7-7-7-7-| 
E||-7-7-7-7-0-0-0-0-3-3-3-3-5-5-5-5-| x 2 

e||-------------------|------------| 
B||-------------------|------------| 
G||-------------------|----7-------| 
D||-9--2--5--2--5--2--|-9--7--9----| 
A||-9--2--5--2--5--2--|-9--5--9----| 
E||-7--0--3--0--3--0--|-7-----7----| 


Verse 

e||---------------------------------|---------------------------------| 
B||---------------------------------|---------------------------------| 
G||---------------------------------|---------------------------------| 
D||-9-9-9-9-9-9-9-9-2-2-2-2-2-2-2-2-|-9-9-9-9-9-9-9-9-2-2-2-2-2-2-2-2-| 
A||-9-9-9-9-9-9-9-9-2-2-2-2-2-2-2-2-|-9-9-9-9-9-9-9-9-2-2-2-2-2-2-2-2-| 
E||-7-7-7-7-7-7-7-7-0-0-0-0-0-0-0-0-|-7-7-7-7-7-7-7-7-0-0-0-0-0-0-0-0-| 

e||---------------------------------| 
B||---------------------------------| 
G||---------------------------------| 
D||-5-5-5-5-5-5-5-5-7-7-7-7-7-7-7-7-| 
A||-5-5-5-5-5-5-5-5-7-7-7-7-7-7-7-7-| 
E||-3-3-3-3-3-3-3-3-5-5-5-5-5-5-5-5-| 


Chorus 

e||---------------------------------| 
B||---------------------------------| 
G||---------------------------------| 
D||-9-9-9-9-2-2-2-2-5-5-5-5-7-7-7-7-| 
A||-9-9-9-9-2-2-2-2-5-5-5-5-7-7-7-7-| 
E||-7-7-7-7-0-0-0-0-3-3-3-3-5-5-5-5-| x 4 


Break 

e||------------------------------| 
B||------------------------------| 
G||------------------------------| 
D||-5------7------9------9-------| 
A||-5------7------9------9-------| 
E||-3------5------7------7-------| 


e||-----------------------------------------------------------------| 
B||-----------------------------------------------------------------| 
G||-----------------------------------------------------------------| 
D||-5-5-5-5-5-5-5-5-7-7-7-7-7-7-7-7-9-9-9-9-9-9-9-9-2-2-2-2-2-2-2-2-| 
A||-5-5-5-5-5-5-5-5-7-7-7-7-7-7-7-7-9-9-9-9-9-9-9-9-2-2-2-2-2-2-2-2-| 
E||-3-3-3-3-3-3-3-3-5-5-5-5-5-5-5-5-7-7-7-7-7-7-7-7-0-0-0-0-0-0-0-0-| 

e||---------------------------------| 
B||---------------------------------| 
G||---------------------------------| 
D||-5-5-5-5-5-5-5-5-7-7-7-7-7-7-7-7-| 
A||-5-5-5-5-5-5-5-5-7-7-7-7-7-7-7-7-| 
E||-3-3-3-3-3-3-3-3-5-5-5-5-5-5-5-5-| 


Chorus 

e||---------------------------------| 
B||---------------------------------| 
G||---------------------------------| 
D||-9-9-9-9-2-2-2-2-5-5-5-5-7-7-7-7-| 
A||-9-9-9-9-2-2-2-2-5-5-5-5-7-7-7-7-| 
E||-7-7-7-7-0-0-0-0-3-3-3-3-5-5-5-5-| x 4 


End 
e||-----------------------------------------| 
B||-----------------------------------------| 
G||-----------------------------------------| 
D||-9-9-9-9-7-7-7-7-5-5-5-5-2-2-2-2-5-5-7-7-| 
A||-9-9-9-9-7-7-7-7-5-5-5-5-2-2-2-2-5-5-7-7-| 
E||-7-7-7-7-5-5-5-5-3-3-3-3-0-0-0-0-3-3-5-5-| x 3 

e||-------------------------| 
B||-------------------------| 
G||---------7-7-7-----------| 
D||-9-9-9-9-7-7-7-9---------| 
A||-9-9-9-9-5-5-5-9---------| 
E||-7-7-7-7-------7---------| 

Compartilhe esta música: novo

QR Code
Copiar