Exister

Hot Water Music


Intro 

Guitar #1 

   hold / feedback 
e||------| 
B||------| 
G||--8---| 
D||------| 
A||------| 
E||------| 

Guitar #2 comes in at 0:11 


e||------------------| 
B||------------------| 
G||------------------| 
D||-9-9--------------| 
A||-9-9--------------| x 2 
E||-7-7--------------| 


e||------------------------------------------------------------------| 
B||------------------------------------------------------------------| 
G||--------------------------9-9-9-7--7-7-7-7-7-7-7------------------| 
D||-9--9-9-9-9-9-9-9-9-9-9-9-9-9-9-7--7-7-7-7-7-7-7-7--7-7-7-7-7-7-7-| 
A||-9--9-9-9-9-9-9-9-9-9-9-9-7-7-7-5--5-5-5-5-5-5-5-7--7-7-7-7-7-7-7-| 
E||-7--7-7-7-7-7-7-7-7-7-7-7------------------------5--5-5-5-5-5-5-5-| x 2 
  

Verse 

e||-----------------------------------------------------------------| 
B||-----------------------------------------------------------------| 
G||--------------------------9-9-9-7--7-7-7-7-7-7-7-7-7-7-7-7-------| 
D||-9--9-9-9-9-9-9-9-9-9-9-9-9-9-9-7--7-7-7-7-7-7-7-7-7-7-7-7-7-7-7-| 
A||-9--9-9-9-9-9-9-9-9-9-9-9-7-7-7-5--5-5-5-5-5-5-5-5-5-5-5-5-7-7-7-| 
E||-7--7-7-7-7-7-7-7-7-7-7-7----------------------------------5-5-5-| x 4 


PreChorus 

e||-------------------------------| 
B||-------------------------------| 
G||----------7-7-7----------9-9-9-| 
D||-5--5-5-5-7-7-7-7--7-7-7-9-9-9-| 
A||-5--5-5-5-5-5-5-7--7-7-7-7-7-7-| 
E||-3--3-3-3-------5--5-5-5-------| 


Chorus 

e||-------------------------------------------------------------------------------------------| 
B||-------------------------------------------------------------------------------------------| 
G||----------------------------------------------------------------------7-7-7----------9-9-9-| 
D||-9--9-9-9-9-9-9-8--8-8-8-8-8-8-7--7-7-7-7-7-7-6--6-6-6-6-6-6-5--5-5-5-7-7-7-7--7-7-7-9-9-9-| 
A||-9--9-9-9-9-9-9-9--9-9-9-9-9-9-7--7-7-7-7-7-7-7--7-7-7-7-7-7-5--5-5-5-5-5-5-7--7-7-7-7-7-7-| 
E||-7--7-7-7-7-7-7-6--6-6-6-6-6-6-5--5-5-5-5-5-5-4--4-4-4-4-4-4-3--3-3-3-------5--5-5-5-------| 

e||-------------------------------------------------------------| 
B||-------------------------------------------------------------| 
G||-------------------------------------------------------------| 
D||-9--9-9-9-9-9-9-8--8-8-8-8-8-8-7--7-7-7-7-7-7-6--6-6-6-6-6-6-| 
A||-9--9-9-9-9-9-9-9--9-9-9-9-9-9-7--7-7-7-7-7-7-7--7-7-7-7-7-7-| 
E||-7--7-7-7-7-7-7-6--6-6-6-6-6-6-5--5-5-5-5-5-5-4--4-4-4-4-4-4-| 

e||-------------------------------------------------------------------------------------------| 
B||-------------------------------------------------------------------------------------------| 
G||----------------------------------------------------------------------7-7-7----------9-9-9-| 
D||-9--9-9-9-9-9-9-8--8-8-8-8-8-8-7--7-7-7-7-7-7-6--6-6-6-6-6-6-5--5-5-5-7-7-7-7--7-7-7-9-9-9-| 
A||-9--9-9-9-9-9-9-9--9-9-9-9-9-9-7--7-7-7-7-7-7-7--7-7-7-7-7-7-5--5-5-5-5-5-5-7--7-7-7-7-7-7-| 
E||-7--7-7-7-7-7-7-6--6-6-6-6-6-6-5--5-5-5-5-5-5-4--4-4-4-4-4-4-3--3-3-3-------5--5-5-5-------| 

e||-----------------------------------------------------------------| 
B||-----------------------------------------------------------------| 
G||--------------------------9-9-9-7--7-7-7-7-7-7-7-7-7-7-7-7-------| 
D||-9--9-9-9-9-9-9-9-9-9-9-9-9-9-9-7--7-7-7-7-7-7-7-7-7-7-7-7-7-7-7-| 
A||-9--9-9-9-9-9-9-9-9-9-9-9-7-7-7-5--5-5-5-5-5-5-5-5-5-5-5-5-7-7-7-| 
E||-7--7-7-7-7-7-7-7-7-7-7-7----------------------------------5-5-5-| x 2 


Verse 

e||-------------|--------------| 
B||-------------|--------------| 
G||-------------|--------------| 
D||-9-----------|-9------------| 
A||-9-----------|-9------------| 
E||-7-----------|-7------------| 

e||-----------------------------------------------------------------| 
B||-----------------------------------------------------------------| 
G||--------------------------9-9-9-7--7-7-7-7-7-7-7-7-7-7-7-7-------| 
D||-9--9-9-9-9-9-9-9-9-9-9-9-9-9-9-7--7-7-7-7-7-7-7-7-7-7-7-7-7-7-7-| 
A||-9--9-9-9-9-9-9-9-9-9-9-9-7-7-7-5--5-5-5-5-5-5-5-5-5-5-5-5-7-7-7-| 
E||-7--7-7-7-7-7-7-7-7-7-7-7----------------------------------5-5-5-| x 2 

PreChorus 

e||-------------------------------| 
B||-------------------------------| 
G||----------7-7-7----------9-9-9-| 
D||-5--5-5-5-7-7-7-7--7-7-7-9-9-9-| 
A||-5--5-5-5-5-5-5-7--7-7-7-7-7-7-| 
E||-3--3-3-3-------5--5-5-5-------| 


Chorus 

e||-------------------------------------------------------------------------------------------| 
B||-------------------------------------------------------------------------------------------| 
G||----------------------------------------------------------------------7-7-7----------9-9-9-| 
D||-9--9-9-9-9-9-9-8--8-8-8-8-8-8-7--7-7-7-7-7-7-6--6-6-6-6-6-6-5--5-5-5-7-7-7-7--7-7-7-9-9-9-| 
A||-9--9-9-9-9-9-9-9--9-9-9-9-9-9-7--7-7-7-7-7-7-7--7-7-7-7-7-7-5--5-5-5-5-5-5-7--7-7-7-7-7-7-| 
E||-7--7-7-7-7-7-7-6--6-6-6-6-6-6-5--5-5-5-5-5-5-4--4-4-4-4-4-4-3--3-3-3-------5--5-5-5-------| 

e||-------------------------------------------------------------| 
B||-------------------------------------------------------------| 
G||-------------------------------------------------------------| 
D||-9--9-9-9-9-9-9-8--8-8-8-8-8-8-7--7-7-7-7-7-7-6--6-6-6-6-6-6-| 
A||-9--9-9-9-9-9-9-9--9-9-9-9-9-9-7--7-7-7-7-7-7-7--7-7-7-7-7-7-| 
E||-7--7-7-7-7-7-7-6--6-6-6-6-6-6-5--5-5-5-5-5-5-4--4-4-4-4-4-4-| 

e||-------------------------------------------------------------------------------------------| 
B||-------------------------------------------------------------------------------------------| 
G||----------------------------------------------------------------------7-7-7----------9-9-9-| 
D||-9--9-9-9-9-9-9-8--8-8-8-8-8-8-7--7-7-7-7-7-7-6--6-6-6-6-6-6-5--5-5-5-7-7-7-7--7-7-7-9-9-9-| 
A||-9--9-9-9-9-9-9-9--9-9-9-9-9-9-7--7-7-7-7-7-7-7--7-7-7-7-7-7-5--5-5-5-5-5-5-7--7-7-7-7-7-7-| 
E||-7--7-7-7-7-7-7-6--6-6-6-6-6-6-5--5-5-5-5-5-5-4--4-4-4-4-4-4-3--3-3-3-------5--5-5-5-------| 


Break 

e||-------------|--------------| 
B||-------------|--------------| 
G||-------------|--------------| 
D||-9-----------|-9------------| 
A||-9-----------|-9------------| 
E||-7-----------|-7------------| 

e||-----------------------------------------------------------------| 
B||-----------------------------------------------------------------| 
G||--------------------------9-9-9-7--7-7-7-7-7-7-7-7-7-7-7-7-------| 
D||-9--9-9-9-9-9-9-9-9-9-9-9-9-9-9-7--7-7-7-7-7-7-7-7-7-7-7-7-7-7-7-| 
A||-9--9-9-9-9-9-9-9-9-9-9-9-7-7-7-5--5-5-5-5-5-5-5-5-5-5-5-5-7-7-7-| 
E||-7--7-7-7-7-7-7-7-7-7-7-7----------------------------------5-5-5-| x 4 

e||-------------------------------| 
B||-------------------------------| 
G||----------7-7-7----------9-9-9-| 
D||-5--5-5-5-7-7-7-7--7-7-7-9-9-9-| 
A||-5--5-5-5-5-5-5-7--7-7-7-7-7-7-| 
E||-3--3-3-3-------5--5-5-5-------| 


Chorus 

e||-------------------------------------------------------------------------------------------| 
B||-------------------------------------------------------------------------------------------| 
G||----------------------------------------------------------------------7-7-7----------9-9-9-| 
D||-9--9-9-9-9-9-9-8--8-8-8-8-8-8-7--7-7-7-7-7-7-6--6-6-6-6-6-6-5--5-5-5-7-7-7-7--7-7-7-9-9-9-| 
A||-9--9-9-9-9-9-9-9--9-9-9-9-9-9-7--7-7-7-7-7-7-7--7-7-7-7-7-7-5--5-5-5-5-5-5-7--7-7-7-7-7-7-| 
E||-7--7-7-7-7-7-7-6--6-6-6-6-6-6-5--5-5-5-5-5-5-4--4-4-4-4-4-4-3--3-3-3-------5--5-5-5-------| 

e||-------------------------------------------------------------| 
B||-------------------------------------------------------------| 
G||-------------------------------------------------------------| 
D||-9--9-9-9-9-9-9-8--8-8-8-8-8-8-7--7-7-7-7-7-7-6--6-6-6-6-6-6-| 
A||-9--9-9-9-9-9-9-9--9-9-9-9-9-9-7--7-7-7-7-7-7-7--7-7-7-7-7-7-| 
E||-7--7-7-7-7-7-7-6--6-6-6-6-6-6-5--5-5-5-5-5-5-4--4-4-4-4-4-4-| x 2 

e||-------------------------------------------------------------------------------------------| 
B||-------------------------------------------------------------------------------------------| 
G||----------------------------------------------------------------------7-7-7----------9-9-9-| 
D||-9--9-9-9-9-9-9-8--8-8-8-8-8-8-7--7-7-7-7-7-7-6--6-6-6-6-6-6-5--5-5-5-7-7-7-7--7-7-7-9-9-9-| 
A||-9--9-9-9-9-9-9-9--9-9-9-9-9-9-7--7-7-7-7-7-7-7--7-7-7-7-7-7-5--5-5-5-5-5-5-7--7-7-7-7-7-7-| 
E||-7--7-7-7-7-7-7-6--6-6-6-6-6-6-5--5-5-5-5-5-5-4--4-4-4-4-4-4-3--3-3-3-------5--5-5-5-------| 

e||-------| 
B||-------| 
G||-------| 
D||-9-----| 
A||-9-----| 
E||-7-----| 

Compartilhe esta música: novo

QR Code
Copiar