Drag My Body

Hot Water Music

                        VERSE 
|----------------------------------------------------------| 
|----------------------------------------------------------| 
|-6---4---6---------6---4---6------------------------------| 
|-6---4---6---7-----6---4---6---7---9----------------------| 
|-4---2---4---7-----4---2---4---7---9----------------------| 
|-------------5-----------------5---7----------------------| 

                        Chorus 
|----------------------------------------------------------| 
|----------------------------------------------------------| 
|-6-------9-------6----------------------------------------| 
|-6---7---9---9---6----------------------------------------| 
|-4---7---7---9---4----------------------------------------| 
|-----5-------7--------------------------------------------| 

                        VERSE 
|----------------------------------------------------------| 
|----------------------------------------------------------| 
|-6---4---6---------6---4---6------------------------------| 
|-6---4---6---7-----6---4---6---7---9----------------------| 
|-4---2---4---7-----4---2---4---7---9----------------------| 
|-------------5-----------------5---7----------------------| 

                        Chorus 
|----------------------------------------------------------| 
|----------------------------------------------------------| 
|-6-------9-------6----------------------------------------| 
|-6---7---9---9---6----------------------------------------| 
|-4---7---7---9---4----------------------------------------| 
|-----5-------7--------------------------------------------| 

                        BRIDGE 
|----------------------------------------------------------| 
|----------------------------------------------------------| 
|----------------------------------------------------------| 
|-7-7-7----9-9-9-------------------------------------------| 
|-7-7-7----9-9-9-------------------------------------------| 
|-5-5-5----7-7-7-------------------------------------------| 

                        Chorus 
|----------------------------------------------------------| 
|----------------------------------------------------------| 
|-6-------9-------6----------------------------------------| 
|-6---7---9---9---6----------------------------------------| 
|-4---7---7---9---4----------------------------------------| 
|-----5-------7--------------------------------------------| 

                        OUTRO 
|----------------------------------------------------------| 
|----------------------------------------------------------| 
|----------------------------------------------------------| 
|-7-7-7----9-9-9---2---------------------------------------| 
|-7-7-7----9-9-9---2---------------------------------------| 
|-5-5-5----7-7-7---0---------------------------------------| 

Compartilhe esta música: novo

QR Code
Copiar