My Last Attack

Holy Grail

Tom: F#
   F# 
D|---------------------------------------------|---------------------------| 
A|---------------------------------------------|--14--16--14---------------| 
F|--13-15-16-15-13----------------13-15-16~----|--------------15b----------| 
C|-----------------16-14-13-14-16--------------|---------------------------| 
G|---------------------------------------------|---------------------------| 
D|---------------------------------------------|---------------------------| 

  F#/A 
D|--------------------------------------------|----------------------------| 
A|--------------------------------------------|--14--16--14--16br----------| 
F|--13-15-16-15-13----------------13-15-16----|----------------------------| 
C|-----------------16-14-13-14-16-------------|----------------------------| 
G|--------------------------------------------|----------------------------| 
D|--------------------------------------------|----------------------------| 

  F#/E 
D|---------------------------------------------|---------------------------| 
A|---------------------------------------------|--14--16--14---------------| 
F|--13-15-16-15-13----------------13-15-16~----|--------------15b----------| 
C|-----------------16-14-13-14-16--------------|---------------------------| 
G|---------------------------------------------|---------------------------| 
D|---------------------------------------------|---------------------------| 

  B 
D|--------------------------------------------------| 
A|--14-12----------14-12-14-12-------16-12-------16-| 
F|--------15-13-11-------------15-11-------15-11----| 
C|--------------------------------------------------| 
G|--------------------------------------------------| 
D|--------------------------------------------------| 

  C# 
D|----------------------------------------------| 
A|--14----------16-14-16-14-------------14--16--| 
F|-----16-15-13-------------16-13-15-16---------| 
C|----------------------------------------------| 
G|----------------------------------------------| 
D|----------------------------------------------| 


Intro/After chorus Lead 2nd Guitar x1 (During intro and after chorus)  

  F# 
D|---------------------------------------------|----------------------------| 
A|---------------------------------------------|--17--19--17----------------| 
F|--16-18-20-18-16----------------16-18-20~----|--------------18b-----------| 
C|-----------------20-18-16-18-20--------------|----------------------------| 
G|---------------------------------------------|----------------------------| 
D|---------------------------------------------|----------------------------| 

  A 
D|---------------------------------------------|----------------------------| 
A|---------------------------------------------|--17--19--17--19b-----------| 
F|--16-18-20-18-16----------------16-18-20~----|----------------------------| 
C|-----------------20-18-16-18-20--------------|----------------------------| 
G|---------------------------------------------|----------------------------| 
D|---------------------------------------------|----------------------------| 

  E 
D|---------------------------------------------|----------------------------| 
A|---------------------------------------------|--17--19--17----------------| 
F|--16-18-20-18-16----------------16-18-20~----|--------------18b-----------| 
C|-----------------20-18-16-18-20--------------|----------------------------| 
G|---------------------------------------------|----------------------------| 
D|---------------------------------------------|----------------------------| 

  B 
D|--------------------------------------------------| 
A|--17-16----------17-16-17-16-------19-16-------19-| 
F|--------18-16-15-------------18-15-------18-15----| 
C|--------------------------------------------------| 
G|--------------------------------------------------| 
D|--------------------------------------------------| 
  
  C#                             
D|----------------------------------------------| 
A|--17----------19-17-19-17-------------17--19--| 
F|-----20-18-16-------------20-16-18-20---------| 
C|----------------------------------------------| 
G|----------------------------------------------| 
D|----------------------------------------------| 
  
     
Verse 
D|----------|----------|----------|-----------| 
A|----------|----------|----------|-----------| 
F|----------|--4-------|----------|-----------| 
C|--6-------|--4-------|--4-------|--2----4---|    (2x) 
G|--6-------|--2-------|--4-------|--2----4---| 
D|--4-------|----------|--2-------|--0----2---| 

  
D|-----------------------------------|----------------------------------| 
A|-----------------------------------|----------------------------------| 
F|-----------------------------------|----------------------------------| 
C|-----------------------------------|--4-------------------------------| 
G|---6-------------------------------|--2-2-2-2-2-2-2-2-2-2-2-2-2-2-2-2-| 
D|---4-4-4-4-4-4-4-4-4-4-4-4-4-4-4-4-|----------------------------------| 

                                                                          (2x) 
D|----------------------------------|-----------------------------------| 
A|----------------------------------|-----------------------------------| 
F|----------------------------------|-----------------------------------| 
C|--6-------------------------------|--9---------------8----------------| 
G|--4-4-4-4-4-4-4-4-4-4-4-4-4-4-4-4-|--7-7-7-7-7-7-7-7-6-6-6-6-6-6-6-6--| 
D|----------------------------------|-----------------------------------| 

After 1st Verse 
D|------------------------------|---------------------------------| 
A|------------------------------|---------------------------------| 
F|------------------4-----------|---------------------------------| 
C|-------------5h6-----6--------|-------------5h6-----------------| 
G|--6--6--6h7-------------6-----|--6--6--6h7-------6----6----6----| 
D|--4--4---------------------7--|--4--4------------4----4----4----| 

  

 (Chorus  2x)   
D|-----------------------------|---------------------------| 
A|-----------------------------|---------------------------| 
F|-----------------------------|---------------------------| 
C|-----------------------------|---------------------------| 
G|--6------6------7------6~----|-------6------7------6~----| 
D|--4--4-4-4--4-4----4-4-------|-------4--4-4----4-4-------| 
     
D|-----------------------------|--------------------------| 
A|-----------------------------|--------------------------| 
F|-----------------------------|--------------------------| 
C|-----------------------------|--------------------------| 
G|--2------2------7------6~----|-------2------7------6----| 
D|--0--0-0-0--0-0----0-0-------|-------0--0-0----0-0------| 

   
D|-----------------------------|--------------------------| 
A|-----------------------------|--------------------------| 
F|-----------------------------|--------------------------| 
C|-----------------------------|--------------------------| 
G|--9------9------7------6~----|-------9------7------6----| 
D|--7--7-7-7--7-7----7-7-------|-------7--7-7----7-7------| 

   This part I'm not too sure of...            
D|------------------------------|-------------------| 
A|------------------------------|-------------------| 
F|------------------------------|-------------------| 
C|--6------6------6------8------|-------------------| 
G|--4--4-4-4--4-4-4--4-4-6------|-------------------| 
D|------------------------------|-------------------| 


Chorus 2nd Guitar on repeat      
D|-----------------------------|---------------------------| 
A|-----------------------------|---------------------------| 
F|-----------------------------|---------------------------| 
C|----------------6------4~----|--------------6------4~----| 
G|--6------6-------------------|-------6-------------------| 
D|--4--4-4-4--4-4----4-4-------|-------4--4-4----4-4-------| 

   
D|-----------------------------|---------------------------| 
A|-----------------------------|---------------------------| 
F|-----------------------------|---------------------------| 
C|----------------6------4~----|--------------6------4~----| 
G|--2------2-------------------|-------2-------------------| 
D|--0--0-0-0--0-0----0-0-------|-------0--0-0----0-0-------| 

              
D|-----------------------------|---------------------------| 
A|-----------------------------|---------------------------| 
F|-----------------------------|---------------------------| 
C|-----------------------------|---------------------------| 
G|--9------9------11-----9~----|-------9------11-----9~----| 
D|--7--7-7-7--7-7----7-7-------|-------7--7-7----7-7-------| 


   This part I'm not too sure of...            
D|------------------------------|-------------------| 
A|------------------------------|-------------------| 
F|------------------------------|-------------------| 
C|--6------6------6------8------|-------------------| 
G|--4--4-4-4--4-4-4--4-4-6------|-------------------| 
D|------------------------------|-------------------| 


 After 2nd Chorus 
D|------------------------------|--------------------------------| 
A|------------------------------|--------------------------------| 
F|------------------4-----------|------------------4-----8--7~---| 
C|-------------5h6-----6--------|-------------5h6-----6----------| 
G|--6--6--6h7-------------6-----|--6--6--6h7---------------------| 
D|--4--4---------------------7--|--4--4--------------------------| 

                                                                    (4x) 
D|------------------------------|--------------------------------| 
A|------------------------------|--------------------------------| 
F|------------------4-----------|--------------------------------| 
C|-------------5h6-----6--------|--------------------------------| 
G|--6--6--6h7-------------6-----|-------------5h6--7-7--7--6-5---| 
D|--4--4---------------------7--|--6--6--6h7-------------------7-| 


Pre Solo 
D|----------------------------------|------------------------------| 
A|----------------------------------|------------------------------| 
F|----------------------------------|------------------------------| 
C|----------------------------------|------------------------------| 
G|--6-------------------------------|--7----7----7----7----7-6-4---| 
D|--4-4-4-4-4-4-4-4-4-4-4-4-4-4-4-4-|----4----4----4----4--------7-| 

D|----------------------------------|------------------------------| 
A|----------------------------------|------------------------------| 
F|----------------------------------|------------------------------| 
C|----------------------------------|------------------------------| 
G|--6-------------------------------|--7----7----7----7----6-7-9-6-| 
D|--4-4-4-4-4-4-4-4-4-4-4-4-4-4-4-4-|----4----4----4----4----------| 

D|----------------------------------|------------------------------| 
A|----------------------------------|------------------------------| 
F|----------------------------------|------------------------------| 
C|----------------------------------|------------------------------| 
G|--6-------------------------------|--7----7----7----7----7-6-4---| 
D|--4-4-4-4-4-4-4-4-4-4-4-4-4-4-4-4-|----4----4----4----4--------7-| 

D|----------------------------------|----------------------------------| 
A|----------------------------------|----------------------------------| 
F|----------------------------------|----------------------------------| 
C|--4-------------------------------|--3-------------------------------| 
G|--2-2-2-2-2-2-2-2-2-2-2-2-2-2-2-2-|--1-1-1-1-1-1-1-1-1-1-1-1-1-1-1-1-| 
D|----------------------------------|----------------------------------| 


Solo Riff 
D|----------------------------------|------------------------------| 
A|----------------------------------|------------------------------| 
F|----------------------------------|------------------------------| 
C|----------------------------------|------------------------------| 
G|--6-------------------------------|--7----7----7----7----7-6-4---| 
D|--4-4-4-4-4-4-4-4-4-4-4-4-4-4-4-4-|----4----4----4----4--------7-| 

D|----------------------------------|------------------------------| 
A|----------------------------------|------------------------------| 
F|----------------------------------|------------------------------| 
C|----------------------------------|------------------------------| 
G|--6-------------------------------|--7----7----7----7----6-7-9-6-| 
D|--4-4-4-4-4-4-4-4-4-4-4-4-4-4-4-4-|----4----4----4----4----------| 

D|----------------------------------|------------------------------| 
A|----------------------------------|------------------------------| 
F|----------------------------------|------------------------------| 
C|----------------------------------|------------------------------| 
G|--6-------------------------------|--7----7----7----7----7-6-4---| 
D|--4-4-4-4-4-4-4-4-4-4-4-4-4-4-4-4-|----4----4----4----4--------7-| 

D|----------------------------------|----------------------------------| 
A|----------------------------------|----------------------------------| 
F|----------------------------------|----------------------------------| 
C|----------------------------------|----------------------------------| 
G|--------------------------6-7-6---|--------------------------6-7-6---| 
D|--7-7-7-7-7-7-7-7-7-7-7-9-------9-|--6-6-6-6-6-6-6-6-6-6-6-6-------9-| 


Post Solo Riff 
D|---------------------------|--------11p--7---------------| 
A|---------------------------|----------------9------------| 
F|------------------------8--|-------------------8---------| 
C|---------------------------|--9--6----------------9------| 
G|--6------------6-----------|-------------------------11--| 
D|--4--4-4-7--4-----7--4-----|-----------------------------| 

D|---------------------------|-------------------------| 
A|---------------------------|-------------------------| 
F|---------------------------|-------6--4--6--8--9--8--| 
C|---------------------------|-------------------------| 
G|--6------------6-----4-----|-------------------------| 
D|--4--4-4-7--4-----7-----7--|--4----------------------| 

   F# 
D|---------------------------|--------11p--7-----------7--| 
A|---------------------------|----------------9-----9-----| 
F|------------------------8--|-------------------8--------| 
C|---------------------------|--9--6----------------------| 
G|--6------------6-----------|----------------------------| 
D|--4--4-4-7--4-----7--4-----|----------------------------| 

    D                    C#                 B               G#    F# 
D|--12-11-9------------------------------|-------------------------------| 
A|----------12-9-12-11-9-----------------|-------------------------------| 
F|-----------------------9-8-6-----------|-------------------------------| 
C|-----------------------------9-6-9-8-6-|-------------------------------| 
G|---------------------------------------|--7-6-4------------------------| 
D|---------------------------------------|--------7-4-7-6-4-7-6----------|  

Compartilhe esta música: novo

QR Code
Copiar