Believe In Me

Hit The Lights

Intro 
E|--------------------------------------------------------------------------------------------| 
B|--------------------------------------------------------------------------------------------| 
G|--------------------------------------------------------------------------0--0--0--7--0--0--| 
D|--------4--------------------4-----------------------4--------------------5--4--5-----4--5--| 
A|--5--3--------------------5-----3-----------------5-----3-----------------------------------| 
E|-----------0--0--0--0--0-----------0--0--0--0--0-----------0--0--0--0--0--------------------| 

E|--------------------------------------------------------------------------| 
B|--------------------------------------------------------------------------| 
G|--------------------------------------------------------------------------| 
D|--------4--------------------4-----------------------4--------------------| 
A|--5--3--------------------5-----3-----------------5-----3-----------------| 
E|-----------0--0--0--0--0-----------0--0--------------------0--0--0--0--0--| 

E|--------------------------------| 
B|--------------------------------| 
G|--------------------------------| 
D|--------------------------------| 
A|--------------------------------| 
E|--0--0--0--0--0--0--0--0--0--0--| 

Verse 
E|-------------------------------------------------| 
B|-------------------------------------------------| 
G|-------------------------------------------------| 
D|--------------------7\5/7--5/4\5/4\5/4\5--2------| 
A|--5-----------------5\3/5--3/2\3/2\3/2\3--0------| 
E|-----0--0--0--0--0-------------------------------| 

E|-------------------------------------------------| 
B|-------------------------------------------------| 
G|-------------------------------------------------| 
D|--------------------7\5/7------------------------| 
A|--5-----------------5\3/5--3-5-3-5---------------| 
E|-----0--0--0--0--0---------3-5-3-5---------------| 

'Just get it started follow my lead' 
E|--------------------------------------------------------------| 
B|--------------------------------------------------------------| 
G|--------------------------------------------------------------| 
D|--------------------------------------------------------------| 
A|--------5--------3--0--0--0--------------------------10p9-----| 
E|--0--0-----0--0-----0--0--0--10--12--10--12--12p10------------| 

'Bang your fucking head until it bleeds' 
E|-------------------------------------------------------| 
B|-------------------------------------------------------| 
G|-------------------------------------------------------| 
D|-------------------------------------------------7--5--| 
A|--------5--------3--0--0--0------------------10--5--3--| 
E|--0--0-----0--0-----0--0--0--10--12--10--12--10--------| 

Chorus 
E|----------------------------------------------------------| 
B|----------------------------------------------------------| 
G|----------------------------------------------------------| 
D|-------------------------------------------5-----5--------| 
A|--5--7--9--7--5--7--9--12--5--7--9--12--5--3--5--3--5--7--| 
E|--5--7--9--7--5--7--9--12--5--7--9--12--5-----5-----5--7--| 

Instrumental 
E|--------------------------------------------------------------------------------------------| 
B|--------------------------------------------------------------------------------------------| 
G|--------------------------------------------------------------------------0--0--0--7--0--0--| 
D|--------4--------------------4-----------------------4--------------------5--4--5-----4--5--| 
A|--5--3--------------------5-----3-----------------5-----3-----------------------------------| 
E|-----------0--0--0--0--0-----------0--0--0--0--0-----------0--0--0--0--0--------------------| 

E|--------------------------------------------------------------------------| 
B|--------------------------------------------------------------------------| 
G|--------------------------------------------------------------------------| 
D|--------4--------------------4-----------------------4--------------------| 
A|--5--3--------------------5-----3-----------------5-----3-----------------| 
E|-----------0--0--0--0--0-----------0--0--------------------0--0--0--0--0--| 

E|--------------------------------| 
B|--------------------------------| 
G|--------------------------------| 
D|--------------------------------| 
A|--------------------------------| 
E|--0--0--0--0--0--0--0--0--0--0--| 

Verse 
E|-------------------------------------------------| 
B|-------------------------------------------------| 
G|-------------------------------------------------| 
D|--------------------7\5/7--5/4\5/4\5/4\5--2------| 
A|--5-----------------5\3/5--3/2\3/2\3/2\3--0------| 
E|-----0--0--0--0--0-------------------------------| 

E|-------------------------------------------------| 
B|-------------------------------------------------| 
G|-------------------------------------------------| 
D|--------------------7\5/7------------------------| 
A|--5-----------------5\3/5--3-5-3-5---------------| 
E|-----0--0--0--0--0---------3-5-3-5---------------| 

'I’m not scared to fall or take a leap' 
E|---------------------------------------------------------------| 
B|---------------------------------------------------------------| 
G|---------------------------------------------------------------| 
D|---------------------------------------------------------------| 
A|--------5--------3--0--0--0---------------------------10p9-----| 
E|--0--0-----0--0-----0--0--0--10--12--10--12--12p10-------------| 

'Failure’s necessary to succeed' 
E|-------------------------------------------------------| 
B|-------------------------------------------------------| 
G|-------------------------------------------------------| 
D|-------------------------------------------------------| 
A|--------5--------3--0--0--0------------------10--------| 
E|--0--0-----0--0-----0--0--0--10--12--10--12--10--------| 

Breakdown 
E|-------------------------------------------------------------------| 
B|-------------------------------------------------------------------| 
G|-------------------------------------------------------------------| 
D|-------------------------------------------------------------------| 
A|--------5--------3----------------------------------------10p9-----| 
E|--0--0-----0--0--------0--0--0--0--10--12--10--12--12p10-----------| 

E|-------------------------------------------------------------------| 
B|-------------------------------------------------------------------| 
G|-------------------------------------------------------------------| 
D|-------------------------------------------------------------------| 
A|--------5--------3-----------------------------3-0-3-5-0-3-5-------| 
E|--0--0-----0--0--------0--0--0--0--10--12--10--3-0-3-5-0-3-5-------| 

Rest................ 

'I never gave a damn what you thought back then' 

E|-----------------------------------------------------------| 
B|-----------------------------------------------------------| 
G|-----------------------------------------------------------| 
D|------------------5-----5----------------------------------| 
A|--5--7--9--7--5---3--5--3--5--7----------------------------| 
E|--5--7--9--7--5------5-----5--7----------------------------| 

'And I don’t give a fuck what you heard about me' 

E|----------------------------------------------------------| 
B|----------------------------------------------------------| 
G|----------------------------------------------------------| 
D|-------------------------------------------5-----5--------| 
A|--5--7--9--7--5--7--9--12--5--7--9--12--5--3--5--3--5--7--| 
E|--5--7--9--7--5--7--9--12--5--7--9--12--5-----5-----5--7--| 

Outro 
E|--------------------------------------------------------------------------------------------| 
B|--------------------------------------------------------------------------------------------| 
G|--------------------------------------------------------------------------0--0--0--7--0--0--| 
D|--------4--------------------4-----------------------4--------------------5--4--5-----4--5--| 
A|--5--3--------------------5-----3-----------------5-----3-----------------------------------| 
E|-----------0--0--0--0--0-----------0--0--0--0--0-----------0--0--0--0--0--------------------| 

E|--------------------------------------------------------------------------| 
B|--------------------------------------------------------------------------| 
G|--------------------------------------------------------------------------| 
D|--------4--------------------4-----------------------4--------------------| 
A|--5--3--------------------5-----3-----------------5-----3-----------------| 
E|-----------0--0--0--0--0-----------0--0--------------------0--0--0--0--0--| 

E|----------------------------------| 
B|----------------------------------| 
G|----------------------------------| 
D|--------------------------------7-| 
A|--------------------------------5-| 
E|--0--0--0--0--0--0--0--0--0--0----| 



************************************ 

| /  Slide up 
| \  Slide down 
| p  Pull-off 

************************************ 

Compartilhe esta música: novo

QR Code
Copiar