Alone But Not Lonely

Hit The Lights

Tom: C#

/ or \  - slide 
b  - Bend 
*  - Pinch harmonics 
h  - Hammer 
p  - Pull off 

Riff 

D#|--------------------------------| 
A#|--------------------------------| 
F#|--------------------------------| 
C#|-------------7p4--2p4--0--0--2--| 
G#|--------5p0---------------------| 
C#|--0--0--------------------------| 

D#|--------------------------------| 
A#|--------------------------------| 
F#|--------------------------------| 
C#|-------------7p4--2p4--0--0--2--| 
G#|--------5p0---------------------| 
C#|-----0--------------------------| 

D#|--------------------------------| 
A#|--------------------------------| 
F#|--------------------------------| 
C#|-------------7p4--2p4--0--0--2--| 
G#|--------5p0---------------------| 
C#|--0--0--------------------------| 

D#|--------------------------| 
A#|--------------------------| 
F#|-----7--------------------| 
C#|--5--7--0--5--7--0--4--5--| 
G#|--5--5--0--5--7--0--4--5--| 
C#|--5-----0--5--7--0--4--5--| 


D#|--------------------------------| 
A#|--------------------------------| 
F#|--------------------------------| 
C#|-------------7p4--2p4--0--0--2*-| 
G#|--------5p0---------------------| 
C#|--0--0--------------------------| 

D#|--------------------------------| 
A#|--------------------------------| 
F#|--------------------------------| 
C#|-------------7p4--2p4--0--0--2--| 
G#|--------5p0---------------------| 
C#|-----0--------------------------| 

D#|--------------------------------| 
A#|--------------------------------| 
F#|--------------------------------| 
C#|-------------7p4--2p4--0--0--2--| 
G#|--------5p0---------------------| 
C#|--0--0--------------------------| 

D#|--------------------------| 
A#|--------------------------| 
F#|-----7--------------------| 
C#|--5--7--0--5--7--0--4--5--| 
G#|--5--5--0--5--7--0--4--5--| 
C#|--5-----0--5--7--0--4--5--| 


pause 

Chorus 


D#|-----------------| 
A#|-----------------| 
F#|-----------------| 
C#|--5--0--7--9--7--|   X3 
G#|--5--0--7--9--7--| 
C#|--5--0--7--9--7--| 

D#|--------------| 
A#|--------------| 
F#|--------------| 
C#|--5--0--9--7--| 
G#|--5--0--9--7--| 
C#|--5--0--9--7--| 


D#|--------------------------| 
A#|--------------------------| 
F#|-----7-----7--------7-----| 
C#|--5--7--9--7--7--5--7--9--| 
G#|--5--5--9--5--7--5--5--9--| 
C#|--5-----9-----7--5-----9--| 

Riff 

D#|--------------------------------| 
A#|--------------------------------| 
F#|--------------------------------| 
C#|-------------7p4--2p4--0--0--2--| 
G#|--------5p0---------------------| 
C#|--0--0--------------------------| 

D#|--------------------------------| 
A#|--------------------------------| 
F#|--------------------------------| 
C#|-------------7p4--2p4--0--0--2--| 
G#|--------5p0---------------------| 
C#|-----0--------------------------| 

D#|--------------------------------| 
A#|--------------------------------| 
F#|--------------------------------| 
C#|-------------7p4--2p4--0--0--2--| 
G#|--------5p0---------------------| 
C#|--0--0--------------------------| 

D#|--------------------------| 
A#|--------------------------| 
F#|-----7--------------------| 
C#|--5--7--0--5--7--0--4--5--| 
G#|--5--5--0--5--7--0--4--5--| 
C#|--5-----0--5--7--0--4--5--| 


Palm Mute 

D#|-------| 
A#|-------| 
F#|-------| 
C#|--0----| 
G#|--0----| 
C#|--0----| 

D#|--------------------------------| 
A#|--------------------------------| 
F#|--------------------------------| 
C#|-------------7p4--2p4--0--0--2--| 
G#|--------5p0---------------------| 
C#|--0--0--------------------------| 


Chorus 


D#|-----------------| 
A#|-----------------| 
F#|-----7-----------| 
C#|--5--7--0--5--7--| 
G#|--5--5--0--5--7--| 
C#|--5-----0--5--7--| 

D#|-----------------| 
A#|-----------------| 
F#|-----------------|   X3 
C#|--5--0--7--9--7--| 
G#|--5--0--7--9--7--| 
C#|--5--0--7--9--7--| 

D#|--------------| 
A#|--------------| 
F#|--------------| 
C#|--5--0--9--7--| 
G#|--5--0--9--7--| 
C#|--5--0--9--7--| 

D#|----------------| 
A#|----------------| 
F#|-----7-----7----| 
C#|--5--7--9--7--7-|  X2 
G#|--5--5--9--5--7-| 
C#|--5-----9-----7-| 


Solo 

D#|----------14------------------------14-----------------------14--------------------------| 
A#|------15------------------------15-----------------------15------------------------------| 
F#|--16----------16--14/12--14\16----------11b12r11--14/16----------16--14\12--11h12--14--9-| 
C#|-----------------------------------------------------------------------------------------| 
G#|-----------------------------------------------------------------------------------------| 
C#|-----------------------------------------------------------------------------------------| 


Breakdown 


D#|-----------------------------------------| 
A#|-----------------------------------------| 
F#|-----------------2-----------------------| 
C#|--2--5-----4--2-----4-----2--0--4b5r4p0--|  X2 
G#|--2--5--2--------------0-----------------| 
C#|--2--5-----------------------------------| 

D#|--------------------| 
A#|--------------------| 
F#|--------------------| 
C#|--2--0--5--4--5--7--| 
G#|--2--0--5--4--5--7--| 
C#|--2--0--5--4--5--7--| 


Chrous 

pause 

D#|---------------| 
A#|---------------| 
F#|---------------| 
C#|---0--7--9--7--| 
G#|---0--7--9--7--| 
C#|---0--7--9--7--| 


D#|-----------------| 
A#|-----------------| 
F#|-----------------|   X2 
C#|--5--0--7--9--7--| 
G#|--5--0--7--9--7--| 
C#|--5--0--7--9--7--| 

D#|--------------| 
A#|--------------| 
F#|--------------| 
C#|--5--0--9--7--| 
G#|--5--0--9--7--| 
C#|--5--0--9--7--| 

D#|----------------| 
A#|----------------| 
F#|-----7-----7----| 
C#|--5--7--9--7--7-|  X4 
G#|--5--5--9--5--7-| 
C#|--5-----9-----7-| 

Compartilhe esta música: novo

QR Code
Copiar