Hino Nacional Brasileiro

Hinos

a tab esta coforme a letra é cantada 
 
E|-----------4---4-5-6-7-------------4---5^4----- 
B|---5-4-5-7---7---------5---5-4-7-5---7-----6-7- 
G|-4-----------------------4--------------------- 
D|----------------------------------------------- 
A|----------------------------------------------- 
E|----------------------------------------------- 
'Ouviram do Ipiranga as margens plácidas 
 De um povo heróico o brado retumbante,' 
 
E|-------------------7-8-9------------------7-------- 
B|---7-6-7-9-10-9-10-------7---7-6-9-7-10-9---10-8-9- 
G|-6-------------------------6----------------------- 
D|--------------------------------------------------- 
A|--------------------------------------------------- 
E|--------------------------------------------------- 
'E o Sol da liberdade, em raios fúlgidos,  
 Brilhou no céu da pátria nesse instante.' 
 
E|-------------------9-7----------------------------- 
B|-9-9-10-9-9-10-9-9-----10-10-9-9-7-7--------------- 
G|---------------------------------------9-9-8-8-6--- 
D|--------------------------------------------------- 
A|--------------------------------------------------- 
E|--------------------------------------------------- 
'Se o penhor dessa igualdade  
 Conseguimos conquistar com braço forte,' 
 
E|-----------------7-6------------------------------- 
B|-7-7-9-7-7-9-7-7-----9-9-7-7----------------------- 
G|-----------------------------9-9-8-8-6-6----------- 
D|-----------------------------------------9---------  
A|---------------------------------------------------  
E|---------------------------------------------------  
'Em teu seio, ó liberdade, 
 Desafia o nosso peito a própria morte!' 
 
E|-------5-------5-------5-5- 
B|---4-7-----4-7-----4-7----- 
G|-4-------4-------4--------- 
D|--------------------------- 
A|--------------------------- 
E|--------------------------- 
'Ó pátria amada,  
 Idolatrada, 
 Salve! Salve!' 
 
E|-----------4---4-5-6-7-------------4---5^4----- 
B|---5-4-5-7---7---------5---5-4-7-5---7-----6-7- 
G|-4-----------------------4--------------------- 
f----------------------------------------------- 
A|----------------------------------------------- 
E|----------------------------------------------- 
'Brasil, um sonho intenso, um raio vívido  
 De amor e de esperança à terra desce,' 
 
E|-------------------7-8-9------------------7-------- 
B|---7-6-7-9-10-9-10-------7---7-6-9-7-10-9---10-8-9- 
G|-6-------------------------6----------------------- 
f--------------------------------------------------- 
A|--------------------------------------------------- 
E|--------------------------------------------------- 
'Se em teu formoso céu, risonho e límpido, 
 A imagem do Cruzeiro resplandece.' 
 
E|---------------------5----------------------7------------------------9- 
B|-5-7-5-4^5-4^5-7-5-5----7-9-7-6^7-6^7-9-7-7----9-10-9-8^9-8^9-10-9-9--- 
G|----------------------------------------------------------------------- 
D|----------------------------------------------------------------------- 
A|----------------------------------------------------------------------- 
E|----------------------------------------------------------------------- 
'Gigante pela própria natureza, 
 És belo, és forte, impávido colosso, 
 E o teu futuro espelha essa grandeza,' 
 
E|-7-----------------5^4---------5------- 
B|---10-7-7----4-5-7-----4-5-------7-7-5- 
G|----------9----------------7-7--------- 
D|--------------------------------------- 
A|--------------------------------------- 
E|--------------------------------------- 
'Terra adorada,  
 Entre outras mil, 
 És tu, Brasil, 
 Ó Pátria amada'  
 
E|-4-5-6-7-7-4-----5-4---------------- 
B|-------------5-------5-------4-5~~~- 
G|---------------6-------6-4-6-------- 
D|------------------------------------ 
A|-----------corrigido---------------- 
E|------------------------------------ 
'Dos filhos deste solo és mãe gentil, 
 Pátria amada,  
 Brasil!' 
E|-----------4---4-5-6-7-------------4---5^4----- 
B|---5-4-5-7---7---------5---5-4-7-5---7-----6-7- 
G|-4-----------------------4--------------------- 
D|----------------------------------------------- 
A|----------------------------------------------- 
E|----------------------------------------------- 
'Deitado eternamente em berço esplendido 
 Ao som do mar e à luz do céu profundo,' 
 
E|-------------------7-8-9------------------7-------- 
B|---7-6-7-9-10-9-10-------7---7-6-9-7-10-9---10-8-9- 
G|-6-------------------------6----------------------- 
D|--------------------------------------------------- 
A|--------------------------------------------------- 
E|--------------------------------------------------- 
'Fulguras ó Brasil florão da América,  
 Iluminado ao sol do novo mundo.' 
 
E|-------------------9-7----------------------------- 
B|-9-9-10-9-10-9-9-------10-10-9-9-7-7--------------- 
G|---------------------------------------9-9-8-8-6--- 
D|--------------------------------------------------- 
A|--------------------------------------------------- 
E|--------------------------------------------------- 
'Do que a terra, mais garrida  
 Seus risonhos limpos campos têm mais flores,' 
 
E|-----------------7-6------------------------------- 
B|-7-7-9-7-9-7-7-------9-9-7-7----------------------- 
G|-----------------------------9-9-8-8-6-6----------- 
D|-----------------------------------------9---------  
A|---------------------------------------------------  
E|---------------------------------------------------  
'Nossos bosques, tem mais vida, 
 Nossa vida em teu seio mais amores!' 
 
E|-------5-------5-------5-5- 
B|---4-7-----4-7-----4-7----- 
G|-4-------4-------4--------- 
D|--------------------------- 
A|--------------------------- 
E|--------------------------- 
'Ó pátria amada,  
 Idolatrada, 
 Salve! Salve!' 
 
E|-----------4---4-5-6-7-------------4---5^4----- 
B|---5-4-5-7---7---------5---5-4-7-5---7-----6-7- 
G|-4-----------------------4--------------------- 
f----------------------------------------------- 
A|----------------------------------------------- 
E|----------------------------------------------- 
'Brasil, de amor eterno, seja símbolo  
 O lábaro que ostentas estrelado,' 
 
E|-------------------7-8-9------------------7-------- 
B|---7-6-7-9-10-9-10-------7---7-6-9-7-10-9---10-8-9- 
G|-6-------------------------6----------------------- 
f--------------------------------------------------- 
A|--------------------------------------------------- 
E|--------------------------------------------------- 
'E diga o verde louro desta flâmula, 
 Paz no futuro e glória no passado.' 
 
E|---------------------5----------------------7------------------------9- 
B|-5-7-5-4^5-4^5-7-5-5----7-9-7-6^7-6^7-9-7-7----9-10-9-8^9-8^9-10-9-9--- 
G|----------------------------------------------------------------------- 
D|----------------------------------------------------------------------- 
A|----------------------------------------------------------------------- 
E|----------------------------------------------------------------------- 
'Mas ergues da justiça a glava forte, 
 Veraz que um filho teu não foje a luta, 
 Nem teme quem te adora a própria morte,' 
 
E|-7-----------------5^4---------5------- 
B|---10-7-7----4-5-7-----4-5-------7-7-5- 
G|----------9----------------7-7--------- 
D|--------------------------------------- 
A|--------------------------------------- 
E|--------------------------------------- 
'Terra adorada,  
 Entre outras mil, 
 És tu, Brasil, 
 Ó Pátria amada'  
 
E|-4-5-6-7-7-4-----5-4---------------- 
B|-------------5-------5-------4-5~~~- 
G|---------------6-------6-4-6-------- 
D|------------------------------------ 
A|------------------------------------ 
E|------------------------------------ 
'Dos filhos deste solo és mãe gentil, 
 Pátria amada,  
 Brasil!' 
 
Desfecho: 
 
E|-9~7~4---5-2-2---------------------- 
B|-------2-------4-5------------------ 
G|------------------------------------ 
D|------------------------------------ 
A|------------------------------------ 
E|------------------------------------ 

Compartilhe esta música: novo

QR Code
Copiar