Hino Francês - La Marseillaise

Hinos

Allons enfants de la Patrie, Le jour de gloire est arrivé! 

 
||--------5-5-7-7-12~-9--------9------10~-7-4-5~--|| 
||--5-5-5---------------10--10---10-7-------------|| 
||------------------------------------------------|| 
||------------------------------------------------|| 
||------------------------------------------------|| 
||------------------------------------------------|| 
 

Contre nous de la tyrannie, L'étendard sanglant est levé (2x), Entendez-vous dans nos campagnes 

 
||--5-7-9-9-9-10-9-9-7~--7-9-10-10-10-12-10-9~--12-12-12-9----12-9--------------7--10-7---7-5--|| 
||---------------------------------------------------------10------10-5~--5-5-5---------9------|| 
||---------------------------------------------------------------------------------------------|| 
||---------------------------------------------------------------------------------------------|| 
||---------------------------------------------------------------------------------------------|| 
||---------------------------------------------------------------------------------------------|| 
 

Mugir ces féroces soldats?, Ils viennent jusque dans vos bras, Égorger vos fils, vos compagnes! 

 
||----------------------------------------------------------------------------------------|| 
||--8--7--10-10-10-9-10-12~--12-12-13--13-13-13-15-17-12~--13-12-10--10-10-10-12-10-10-9--|| 
||----------------------------------------------------------------------------------------|| 
||----------------------------------------------------------------------------------------|| 
||----------------------------------------------------------------------------------------|| 
||----------------------------------------------------------------------------------------|| 
 

Aux armes citoyens, Formez vos bataillons, Marchons/Marchons, Qu'un sang impur, Abreuve nos sillons 

 
||--12-12~--12-9----7~---12-12~--12-9----7~-----5~--7-9~--10--12-14-------14-12--9-10---------|| 
||---------------10-------------------10------5---------------------12~---------------12-10~--|| 
||--------------------------------------------------------------------------------------------|| 
||--------------------------------------------------------------------------------------------|| 
||--------------------------------------------------------------------------------------------|| 
||--------------------------------------------------------------------------------------------|| 
 

Aux armes citoyens, Formez vos bataillons, Marchons/Marchons, Qu'un sang impur, Abreuve nos sillons 

 
||--12-12~--12-9----7~---12-12~--12-9----7~-----5~--7-9~--10--12-14-------14-12--9-10---------|| 
||---------------10-------------------10------5---------------------12~---------------12-10~--|| 
||--------------------------------------------------------------------------------------------|| 
||--------------------------------------------------------------------------------------------|| 
||--------------------------------------------------------------------------------------------|| 
||--------------------------------------------------------------------------------------------|| 
 

Depois continua da mesma forma, porém, a letra muda. Abaixo vai o hino inteiro. 

Allons enfants de la Patrie 
Le jour de gloire est arrivé! 
Contre nous de la tyrannie 
L'étendard sanglant est levé 
L'étendard sanglant est levé 
Entendez-vous dans nos campagnes 
Mugir ces féroces soldats? 
Ils viennent jusque dans vos bras. 
Égorger vos fils et vos compagnes! 

Aux armes citoyens! 
Formez vos bataillons! 
Marchons, marchons 
Qu'un sang impur 
Abreuve nos sillons 

Que veut cette horde d'esclaves 
De traîtres, de rois conjurés? 
Pour qui ces ignobles entraves 
Ces fers dès longtemps préparés? 
Ces fers dès longtemps préparés? 
Français, pour nous, ah! quel outrage 
Quels transports il doit exciter? 
C'est nous qu'on ose méditer 
De rendre à l'antique esclavage! 

Aux armes citoyens! 
Formez vos bataillons! 
Marchons, marchons 
Qu'un sang impur 
Abreuve nos sillons 

Quoi! ces cohortes étrangères! 
Feraient la loi dans nos foyers! 
Quoi! ces phalanges mercenaires 
Terrasseraient nos fiers guerriers! 
Terrasseraient nos fiers guerriers! 
Grand Dieu! par des mains enchaînées 
Nos fronts sous le joug se ploieraient 
De vils despotes deviendraient 
Les maîtres de nos destinées. 

Aux armes citoyens! 
Formez vos bataillons! 
Marchons, marchons 
Qu'un sang impur 
Abreuve nos sillons 

Tremblez tyrans, et vous perfides 
L'opprobe de tous les partis. 
Tremblez, vos projets parricides 
Vont enfin recevoir leur prix! 
Vont enfin recevoir leur prix! 
Tout est soldat pour vous combattre. 
S'ils tombent nos jeunes héros, 
La terre en produit de nouveaux 
Contre vous, tous prêts à se battre 

Aux armes citoyens! 
Formez vos bataillons! 
Marchons, marchons 
Qu'un sang impur 
Abreuve nos sillons 

Français en guerriers magnanimes 
Portez ou retenez vos coups. 
Épargnez ces tristes victimes 
A regrets s'armant contre nous! 
A regrets s'armant contre nous! 
Mais ce despote sanguinaire 
Mais les complices de Bouillé 
Tous les tigres qui sans pitié 
Déchirent le sein de leur mère! 

Aux armes citoyens! 
Formez vos bataillons! 
Marchons, marchons 
Qu'un sang impur 
Abreuve nos sillons 

Amour Sacré de la Patrie 
Conduis, soutiens nos braves vengeurs. 
Liberté, Liberté chérie 
Combats avec tes défenseurs 
Combats avec tes défenseurs 
Sous nos drapeaux, que la victoire 
Accoure à tes mâles accents 
Que tes ennemis expirants 
Voient ton triomphe et nous, notre gloire! 

Aux armes citoyens! 
Formez vos bataillons! 
Marchons, marchons 
Qu'un sang impur 
Abreuve nos sillons 

Nous entrerons dans la carrière 
Quand nos aînés n'y seront plus 
Nous y trouverons leur poussière 
Et la trace de leurs vertus 
Bien moins jaloux de leur survivre 
Que de partager leur cercueil 
Nous aurons le sublime orgueil 
De les venger ou de les suivre! 

Aux armes citoyens! 
Formez vos bataillons! 
Marchons, marchons 
Qu'un sang impur 
Abreuve nos sillons 

Compartilhe esta música: novo

QR Code
Copiar