Hino Do Internacional

Hinos

Hino do Sport Club Internacional 


INTRODUÇÃO 
e|---------7------6-9-----------------6---------- 
B|-----------7-9--------------------6---9-6---7^- 
G|-6-5-6-----------------5-6--6h8^----------6---- 
D|----------------------------------------------- 
A|----------------------------------------------- 
E|----------------------------------------------- 


GLÓRIA DO DESPORTO NACIONAL, OH INTERNACIONAL QUE EU VIVO A EXALTAR 
e|----------7-6-----------------------------6------------- 
B|---------------8---9---9-9-9--8-7-6-----6---9-6--------- 
G|-6-6-5-6---------8-------------------9----------8^--(6)- 
D|-------------------------------------------------------- 
A|-------------------------------------------------------- 
E|-------------------------------------------------------- 


LEVAS A PLAGAS DISTANTES, FEITOS RELEVANTES, VIVES A BRILHAR 
e|-------------------------------------------------- 
B|------------------6-6---7-7-6-7-7h9-9---9-9-6---9- 
G|-6-5-6--6h8-6--8------------------------------6--- 
D|-------------------------------------------------- 
A|-------------------------------------------------- 
E|-------------------------------------------------- 


OLHOS ONDE SURGE O AMANHÃ, RADIOSO DE LUZ, VARONIL 
e|----------7-6-----------------------------------6-- 
B|---------------8---9---9-9-9--8-7-6^----------6---- 
G|-6-6-5-6---------8-------------------------9------- 
D|--------------------------------------------------- 
A|--------------------------------------------------- 
E|--------------------------------------------------- 


SEGUE TUA SENDA DE VITÓRIAS, COLORADO DAS GLÓRIAS, ORGULHO DO BRASIL 
e|----------7-7------6-6-----------------------6--------- 
B|--------------7-9--------------------------6---9-6---7- 
G|-8-8-7-8----------------6-6-6--5-6--6h8-8----------6--- 
D|------------------------------------------------------- 
A|------------------------------------------------------- 
E|------------------------------------------------------- 


É TEU PASSADO ALVI-RUBRO, MOTIVO DE FESTA EM NOSSO CORAÇÕES 
e|-6-6-6-6------------------------------------------- 
B|---------9-7-7-6---6-6-9-7-7-6---6-6-6------------- 
G|---------------------------------------6-5--------- 
D|--------------------------------------------8^-(6)- 
A|--------------------------------------------------- 
E|--------------------------------------------------- 


O TEU PRESENTE DIZ TUDO, TRAZENDO À TORCIDA, ALEGRES EMOÇÕES 
e|-6-6-6-6--------------------------------------- 
B|---------9-7-7-6--6-6-9-7-7-6---6-6-6-----7^-6- 
G|--------------------------------------6-5------ 
D|----------------------------------------------- 
A|----------------------------------------------- 
E|----------------------------------------------- 


COLORADO DE ASES CELEIRO, TEUS ASTROS CINTILAM NUM CÉU SEMPRE AZUL 
e|------6-6--6-6--------------------------------6- 
B|---------------9-7-7-6---6-6-9-7-7-6--6-6-7-9--- 
G|------------------------------------------------ 
D|-8-8-------------------------------------------- 
A|------------------------------------------------ 
E|------------------------------------------------ 


VIBRA O BRASIL INTEIRO, COM O CLUBE DO POVO DO RIO GRANDE DO SUL 
e|-7-6-----------------------7-7-7-7-6---------- 
B|-----9-9-7-6-9-7---------------------7-7h9-7^- 
G|-------------------6-6-5-6-------------------- 
D|---------------------------------------------- 
A|---------------------------------------------- 
E|---------------------------------------------- 


Felipe Fontoura 
[email protected] 

Compartilhe esta música: novo

QR Code
Copiar