When Love And Death Embrace

HIM

Tom: Em
Intro 
 
Em Bm C G D 
Em Bm C G D C 
 
I'm in love with you 
And it's crushing my heart 
All I want is you 
Bm D 
To take me into your arms, when love and death embrace 
 
Em Bm C G D 
Em Bm C G D C 
 
G Em 
I love you 
And you're crushing my heart 
I need you 
Bm D 
Please take me into your arms, when love and death embrace 
 
Em Bm C G D 
when love and death embrace 
Em Bm C G D 
when love and death embrace 
C 
 
SOLO:  
 
E-Tune 
 
e |-----------------------------------------------| 
b |-----------------------------------------------| 
g |-----------------------------------------------| 
D |-----5-4---------------------'---'-------------| 2 mal 
A |----------2-0-2-------0-2---2b3-3r2-0----------| 
E |-3------------------3-----------------3-2---3--| 
 
e |-----------------------------------------------| 
b |--------------------------------'---'----------| 
g |---0-/-12-11---4-2-4---0-2-4---4b5-5r4-2-0---0-| 
D |-------------------------------------------4---| 2 mal 
A |-----------------------------------------------| 
E |-3---------------------------------------------| 
 
Head-Tune 
 
h |-----------------------------------------------| 
f# |-----------------------------------------------| 
d |-----5-4---------------------'---'-------------| 2 mal 
A |----------2-0-2-------0-2---2b3-3r2-0----------| 
E |-3------------------3-----------------3-2---3--| 
H |-----------------------------------------------| 
 
h |--------------------------------'---'----------| 
f# |---1-/-13-12---5-3-5-----3-5---5b6-6r5-3-1-0-1-| 
d |-----------------------5-----------------------| X 2 
A |-----------------------------------------------| 
E |-----------------------------------------------| 

Compartilhe esta música: novo

QR Code
Copiar