Maps

Hey Ocean

Tom: G
                                          Maps                                             


                                                                                Hey Ocean! 
Lead Guitar ( 
) 



     G5                           C/A           C              
     E  S E  S E  E  S E  S E     E   S E  S E  E  S E  S E    
E||----------------------------|-----------------------------| 
B||----------------------------|-----------------------------| 
G||-------0------------0-------|--------0------------0-------| 
D||----------5------------5----|-----------5------------5----| 
A||-----5------5-----5------5--|------3------3-----3------3--| 
E||--3------------3------------|--5-------------0------------| 


  G                            G/C           G*              G5                          
  E  S E  S E  E  S E  S E     E   S E  S E  E  S E  S E     E  S E  S E  E  S E  S E    
----------------------------|-----------------------------|----------------------------| 
-------0------------0-------|--------0------------0-------|----------------------------| 
----------0------------0----|-----------0------------0----|-------0------------0-------| 
-----5------5-----5------5--|------5------5-----5------5--|----------5------------5----| 
--2------------2------------|--3-------------5------------|-----5------5-----5------5--| 
----------------------------|-----------------------------|--3------------3------------| 


  C/A           C               G                            G/C           G*             
  E   S E  S E  E  S E  S E     E  S E  S E  E  S E  S E     E   S E  S E  E  S E  S E    
-----------------------------|----------------------------|-----------------------------| 
-----------------------------|-------0------------0-------|--------0------------0-------| 
--------0------------0-------|----------0------------0----|-----------0------------0----| 
-----------5------------5----|-----5------5-----5------5--|------5------5-----5------5--| 
------3------3-----3------3--|--2------------2------------|--3-------------5------------| 
--5-------------0------------|----------------------------|-----------------------------| 


  G5                                                                                    
  E  S E  S E  E  S E  S E     E  S E  S E  E  S E  S E     E  S E  S E  E  S E  S E    
----------------------------|----------------------------|----------------------------| 
----------------------------|----------------------------|-------0------------0-------| 
-------0------------0-------|-------0------------0-------|----------0------------0----| 
----------5------------5----|----------5------------5----|-----5------5-----5------5--| 
-----5------5-----5------5--|-----3------3-----3------3--|--2------------2------------| 
--3------------3------------|--5------------0------------|----------------------------| 


  E  S E  S E  E  S E  S E     E  S E  S E  E  S E  S E     E  S E  S E  E  S E  S E    
----------------------------|----------------------------|----------------------------| 
-------0------------0-------|-------0------------0-------|-------0------------0-------| 
----------0------------0----|----------0------------0----|----------0------------0----| 
-----5------5-----5------5--|-----5------5-----5------5--|-----7------7-----7------7--| 
--3------------5------------|--3------------3------------|--5------------5------------| 
----------------------------|----------------------------|----------------------------| 


  E  S E  S E  E  S E  S E     E  S E  S E  E  S E  S E     E  S E  S E  E  S E  S E    
----------------------------|----------------------------|----------------------------| 
-------0------------0-------|-------0------------0-------|-------0------------0-------| 
----------0------------0----|----------0------------0----|----------0------------0----| 
-----5------5-----5------5--|-----5------5-----5------5--|-----5------5-----5------5--| 
----------------------------|----------------------------|--3------------3------------| 
--3------------3------------|--3------------3------------|----------------------------| 


  E  S E  S E  E  S E  S E     E  S E  S E  E  S E  S E     E  S E  S E  E  S E  S E    
----------------------------|----------------------------|----------------------------| 
-------0------------0-------|-------0------------0-------|-------0------------0-------| 
----------0------------0----|----------0------------0----|----------0------------0----| 
-----7------7-----7------7--|-----5------5-----5------5--|-----5------5-----5------5--| 
--5------------5------------|----------------------------|----------------------------| 
----------------------------|--3------------3------------|--3------------3------------| 


  E  S E  S E  E  S E  S E     E  S E  S E  E  S E  S E     E  S E  S E  E  S E  S E    
----------------------------|----------------------------|----------------------------| 
----------------------------|----------------------------|-------0------------0-------| 
-------0------------0-------|-------0------------0-------|----------0------------0----| 
----------5------------5----|----------5------------5----|-----5------5-----5------5--| 
-----5------5-----5------5--|-----3------3-----3------3--|--2------------2------------| 
--3------------3------------|--5------------0------------|----------------------------| 


  E  S E  S E  E  S E  S E     E  S E  S E  E  S E  S E     E  S E  S E  E  S E  S E    
----------------------------|----------------------------|----------------------------| 
-------0------------0-------|----------------------------|----------------------------| 
----------0------------0----|-------0------------0-------|-------0------------0-------| 
-----5------5-----5------5--|----------5------------5----|----------5------------5----| 
--3------------5------------|-----5------5-----5------5--|-----3------3-----3------3--| 
----------------------------|--3------------3------------|--5------------0------------| 


  E  S E  S E  E  S E  S E     E  S E  S E  E  S E  S E     E  S E  S E  E  S E  S E    
----------------------------|----------------------------|----------------------------| 
-------0------------0-------|-------0------------0-------|-------0------------0-------| 
----------0------------0----|----------0------------0----|----------0------------0----| 
-----5------5-----5------5--|-----5------5-----5------5--|-----5------5-----5------5--| 
--2------------2------------|--3------------5------------|--3------------3------------| 
----------------------------|----------------------------|----------------------------| 


  E  S E  S E  E  S E  S E     E  S E  S E  E  S E  S E     E  S E  S E  E  S E  S E    
----------------------------|----------------------------|----------------------------| 
-------0------------0-------|-------0------------0-------|-------0------------0-------| 
----------0------------0----|----------0------------0----|----------0------------0----| 
-----7------7-----7------7--|-----5------5-----5------5--|-----5------5-----5------5--| 
--5------------5------------|----------------------------|----------------------------| 
----------------------------|--3------------3------------|--3------------3------------| 


  E  S E  S E  E  S E  S E     E  S E  S E  E  S E  S E     E  S E  S E  E  S E  S E    
----------------------------|----------------------------|----------------------------| 
-------0------------0-------|-------0------------0-------|-------0------------0-------| 
----------0------------0----|----------0------------0----|----------0------------0----| 
-----5------5-----5------5--|-----7------7-----7------7--|-----5------5-----5------5--| 
--3------------3------------|--5------------5------------|----------------------------| 
----------------------------|----------------------------|--3------------3------------| 


  E  S E  S E  E  S E  S E     E  S E  S E  E  S E  S E     E  S E  S E  E  S E  S E    
----------------------------|----------------------------|----------------------------| 
-------0------------0-------|-------0------------0-------|-------0------------0-------| 
----------0------------0----|----------0------------0----|----------0------------0----| 
-----5------5-----5------5--|-----5------5-----5------5--|-----7------7-----7------7--| 
----------------------------|--3------------3------------|--5------------5------------| 
--3------------3------------|----------------------------|----------------------------| 


  E  S E  S E  E  S E  S E     E  S E  S E  E  S E  S E     E  S E  S E  E  S E  S E    
----------------------------|----------------------------|----------------------------| 
-------0------------0-------|-------0------------0-------|-------0------------0-------| 
----------0------------0----|----------0------------0----|----------0------------0----| 
-----5------5-----5------5--|-----5------5-----5------5--|-----5------5-----5------5--| 
----------------------------|----------------------------|--3------------3------------| 
--3------------3------------|--3------------3------------|----------------------------| 


                                G**                            
  E  S E  S E  E  S E  S E      E  S E   S E   E  S E   S E    
----------------------------|--------------------------------| 
-------0------------0-------|--------0--------------0--------| 
----------0------------0----|--------------0--------------0--| 
-----7------7-----7------7--|------9--------------9----------| 
--5------------5------------|--10-------10----10-------10----| 
----------------------------|--------------------------------| 


  G7M9           Em              Bm                           E/C           Bm             
  E    S E  S E  E  S E  S E     E  S E  S E  E  S E  S E     E   S E  S E  E  S E  S E    
------------------------------|----------------------------|-----------------------------| 
---------0------------0-------|-------0------------0-------|--------0------------0-------| 
------------0------------0----|----------4------------4----|-----------4------------4----| 
-------7------7-----5------5--|-----4------4-----4------4--|------2------2-----4------4--| 
--9--------------7------------|--5------------5------------|--3-------------5------------| 
------------------------------|----------------------------|-----------------------------| 


   E  S E   S E   E  S E   S E     E  S E  S E  E  S E  S E    
--------------------------------|----------------------------| 
--------0--------------0--------|-------0------------0-------| 
--------------0--------------0--|----------0------------0----| 
------9--------------9----------|-----7------7-----5------5--| 
--10-------10----10-------10----|--9------------7------------| 
--------------------------------|----------------------------| 


                                                            G5                          
  E  S E  S E  E  S E  S E     E  S E  S E  E  S E  S E     E  S E  S E  E  S E  S E    
----------------------------|----------------------------|----------------------------| 
-------0------------0-------|-------0------------0-------|----------------------------| 
----------4------------4----|----------4------------4----|-------0------------0-------| 
-----4------4-----4------4--|-----2------2-----4------4--|----------5------------5----| 
--5------------5------------|--3------------5------------|-----5------5-----5------5--| 
----------------------------|----------------------------|--3------------3------------| 


  C/A           C               G                            G/C                
  E   S E  S E  E  S E  S E     E  S E  S E  E  S E  S E     W                  
-----------------------------|----------------------------|-------------------| 
-----------------------------|-------0------------0-------|-------------------| 
--------0------------0-------|----------0------------0----|-------------------| 
-----------5------------5----|-----5------5-----5------5--|-------------------| 
------3------3-----3------3--|--2------------2------------|--3----------------| 
--5-------------0------------|----------------------------|-------------------| 


                      These chords are actually played                       
  W                   W                                   W                  
-------------------|--0--------------------------------|--2----------------| 
-------------------|--1--------------------------------|--3----------------| 
-------------------|--0--------------------------------|--2----------------| 
-------------------|--2--------------------------------|--0----------------| 
--L----------------|--3--------------------------------|-------------------| 
-------------------|-----------------------------------|-------------------| 


   on the piano                                                                  
  W                   W                   W                   W                  
--3----------------|-------------------|--0----------------|--2----------------| 
--3----------------|-------------------|--1----------------|--3----------------| 
--0----------------|-------------------|--0----------------|--2----------------| 
--0----------------|-------------------|--2----------------|--0----------------| 
--2----------------|-------------------|--3----------------|-------------------| 
--3----------------|-------------------|-------------------|-------------------| 


  W                   W                   W                   W                  
--3----------------|-------------------|--0----------------|--2----------------| 
--3----------------|-------------------|--1----------------|--3----------------| 
--0----------------|-------------------|--0----------------|--2----------------| 
--0----------------|-------------------|--2----------------|--0----------------| 
--2----------------|-------------------|--3----------------|-------------------| 
--3----------------|-------------------|-------------------|-------------------| 


  W                   W                   W                   W                  
--3----------------|--3----------------|--0----------------|--2----------------| 
--3----------------|--3----------------|--1----------------|--3----------------| 
--0----------------|--0----------------|--0----------------|--2----------------| 
--0----------------|--0----------------|--2----------------|--0----------------| 
--2----------------|--2----------------|--3----------------|-------------------| 
--3----------------|--3----------------|-------------------|-------------------| 


   E  S E   S E   E  S E   S E     E  S E  S E  E  S E  S E    
--------------------------------|----------------------------| 
--------0--------------0--------|-------0------------0-------| 
--------------0--------------0--|----------0------------0----| 
------9--------------9----------|-----7------7-----5------5--| 
--10-------10----10-------10----|--9------------7------------| 
--------------------------------|----------------------------| 


  E  S E  S E  E  S E  S E     E  S E  S E  E  S E  S E    
----------------------------|----------------------------| 
-------0------------0-------|-------0------------0-------| 
----------4------------4----|----------4------------4----| 
-----4------4-----4------4--|-----2------2-----4------4--| 
--5------------5------------|--3------------5------------| 
----------------------------|----------------------------| 


   E  S E   S E   E  S E   S E     E  S E  S E  E  S E  S E    
--------------------------------|----------------------------| 
--------0--------------0--------|-------0------------0-------| 
--------------0--------------0--|----------0------------0----| 
------9--------------9----------|-----7------7-----5------5--| 
--10-------10----10-------10----|--9------------7------------| 
--------------------------------|----------------------------| 


  E  S E  S E  E  S E  S E     E  S E  S E  E  S E  S E    
----------------------------|----------------------------| 
-------0------------0-------|-------0------------0-------| 
----------4------------4----|----------4------------4----| 
-----4------4-----4------4--|-----2------2-----4------4--| 
--5------------5------------|--3------------5------------| 
----------------------------|----------------------------| 


   E  S E   S E   E  S E   S E     E  S E  S E  E  S E  S E    
--------------------------------|----------------------------| 
--------0--------------0--------|-------0------------0-------| 
--------------0--------------0--|----------0------------0----| 
------9--------------9----------|-----7------7-----5------5--| 
--10-------10----10-------10----|--9------------7------------| 
--------------------------------|----------------------------| 


  E  S E  S E  E  S E  S E     E  S E  S E  E  S E  S E    
----------------------------|----------------------------| 
-------0------------0-------|-------0------------0-------| 
----------4------------4----|----------4------------4----| 
-----4------4-----4------4--|-----2------2-----4------4--| 
--5------------5------------|--3------------5------------| 
----------------------------|----------------------------| 


   E  S E   S E   E  S E   S E     E  S E  S E  E  S E  S E    
--------------------------------|----------------------------| 
--------0--------------0--------|-------0------------0-------| 
--------------0--------------0--|----------0------------0----| 
------9--------------9----------|-----7------7-----5------5--| 
--10-------10----10-------10----|--9------------7------------| 
--------------------------------|----------------------------| 


  E  S E  S E  E  S E  S E     E  S E  S E  E  S E  S E    
----------------------------|----------------------------| 
-------0------------0-------|-------0------------0-------| 
----------4------------4----|----------4------------4----| 
-----4------4-----4------4--|-----2------2-----4------4--| 
--5------------5------------|--3------------5------------| 
----------------------------|----------------------------| 


   E  S E   S E   E  S E   S E     E  S E  S E  E  S E  S E    
--------------------------------|----------------------------| 
--------0--------------0--------|-------0------------0-------| 
--------------0--------------0--|----------0------------0----| 
------9--------------9----------|-----7------7-----5------5--| 
--10-------10----10-------10----|--9------------7------------| 
--------------------------------|----------------------------| 


  E  S E  S E  E  S E  S E     E  S E  S E  E  S E  S E    
----------------------------|----------------------------| 
-------0------------0-------|-------0------------0-------| 
----------4------------4----|----------4------------4----| 
-----4------4-----4------4--|-----2------2-----4------4--| 
--5------------5------------|--3------------5------------| 
----------------------------|----------------------------| 


   E  S E   S E   E  S E   S E     E  S E  S E  E  S E  S E    
--------------------------------|----------------------------| 
--------0--------------0--------|-------0------------0-------| 
--------------0--------------0--|----------0------------0----| 
------9--------------9----------|-----7------7-----5------5--| 
--10-------10----10-------10----|--9------------7------------| 
--------------------------------|----------------------------| 


  E  S E  S E  E  S E  S E     E  S E  S E  E  S E  S E                                  
----------------------------|----------------------------|-----|-----|-----|-----|-----| 
-------0------------0-------|-------0------------0-------|-----|-----|-----|-----|-----| 
----------4------------4----|----------4------------4----|-----|-----|-----|-----|-----| 
-----4------4-----4------4--|-----2------2-----4------4--|-----|-----|-----|-----|-----| 
--5------------5------------|--3------------5------------|-----|-----|-----|-----|-----| 
----------------------------|----------------------------|-----|-----|-----|-----|-----| 




Duration Legend 
--------------- 
W - whole 
H - half 
Q - quarter 
E - 8th 
S - 16th 
T - 32nd 
X - 64th 
. - note dotted 
|-n-|  - n-tuplets 


Tablature Legend 
---------------- 
L - tied note 
x - dead note 
g - grace note 
(n) - ghost note 
> - accentuded note 
NH - natural harmonic 
AH - artificial harmonic 
TH - tapped harmonic 
SH - semi harmonic 
PH - pitch harmonic 
h - hammer on 
p - pull off 
b - bend 
br - bendRelease 
pb - preBend 
pbr - preBendRelease 
brb - bendReleaseBend 
\n/ - tremolo bar dip 
\n - tremolo bar dive 
-/n - tremolo bar Release up 
/n\ - tremolo bar inverted dip 
/n - tremolo bar return 
-\n - tremolo bar Release down 
S - shift slide 
s - legato slide 
/ -  slide into from below or out of upwards 
\ -  slide into from above or out of downwards 
~ - vibrato 
W - wide vibrato 
tr - trill 
TP - tremolo picking 
T - tapping 
S - slap 
P - pop 
< - fade in 
^ - brush up 
v - brush down 

Compartilhe esta música: novo

QR Code
Copiar