Islands

Hey Ocean

Tom: E
                                        Islands                                            


                                                                                Hey Ocean! 
Guitar ( 
) 

Intro 

                                     E  E.  S S S E  E.  S S S   
E||-------|-------|-------|-------|----------------------------| 
B||-------|-------|-------|-------|-----0-------0----0-------0-| 
G||-------|-------|-------|-------|---------0------------0-----| 
D||-------|-------|-------|-------|-----2-----2------2-----2---| 
A||-------|-------|-------|-------|----------------------------| 
E||-------|-------|-------|-------|--0------------0------------| 


                                                                            3           
  E  E.  S S S E  E.  S S S    E  E.  S S S E  E.  S S S    E  E.  S S S E  E.  E  E    
----------------------------|----------------------------|----------------------------| 
-----0-------0----0-------0-|-----0-------0----0-------0-|-----0-------0----0------0--| 
---------0------------0-----|---------0------------0-----|---------0------------------| 
-----2-----2------2-----2---|-----2-----2------2-----2---|-----2-----2-------------5--| 
----------------------------|----------------------------|----------------------5-----| 
--0------------0------------|--0------------0------------|--0------------0------------| 


  E  E.  S S S E  E.  S S S    E  E.  S S S E  E  E  E     E  E.  S S S E  E.  S S S   
----------------------------|---------------------------|----------------------------| 
-----0-------0----0-------0-|-----0-------0----0-----0--|-----0-------0----0-------0-| 
---------6------------6-----|---------6-----------------|---------0------------0-----| 
-----7-----7------7-----7---|-----7-----7------7-----5--|-----2-----2------2-----2---| 
--7------------7------------|--7------------7-----5-----|----------------------------| 
----------------------------|---------------------------|--0------------0------------| 


                  3                                                                    
  E  E.  S S S E  E.  E  E     E  E.  S S S E  E.  S S S    E  E.  S S S E  E  E  E    
----------------------------|----------------------------|---------------------------| 
-----0-------0----0------0--|-----0-------0----0-------0-|-----0-------0----0-----0--| 
---------0------------------|---------6------------6-----|---------6-----------------| 
-----2-----2-------------5--|-----7-----7------7-----7---|-----7-----7------7-----5--| 
----------------------5-----|--7------------7------------|--7------------7-----5-----| 
--0------------0------------|----------------------------|---------------------------| 


                                               3                                        
  E  E.  S S S E  E.  S S S    E  E.  S S S E  E.  E  E     E  E.  S S S E  E.  S S S   
----------------------------|----------------------------|----------------------------| 
-----0-------0----0-------0-|-----0-------0----0------0--|-----0-------0----0-------0-| 
---------0------------0-----|---------0------------------|---------6------------6-----| 
-----2-----2------2-----2---|-----2-----2-------------5--|-----7-----7------7-----7---| 
----------------------------|----------------------5-----|--7------------7------------| 
--0------------0------------|--0------------0------------|----------------------------| 


                                                                           3           
  E  E.  S S S E  E  E  E     E  E.  S S S E  E.  S S S    E  E.  S S S E  E.  E  E    
---------------------------|----------------------------|----------------------------| 
-----0-------0----0-----0--|-----0-------0----0-------0-|-----0-------0----0------0--| 
---------6-----------------|---------0------------0-----|---------0------------------| 
-----7-----7------7-----5--|-----2-----2------2-----2---|-----2-----2-------------5--| 
--7------------7-----5-----|----------------------------|----------------------5-----| 
---------------------------|--0------------0------------|--0------------0------------| 


  E  E.  S S S E  E.  S S S    E  E.  S S S E  E  E  E     E  E.  S S S E  E.  S S S   
----------------------------|---------------------------|----------------------------| 
-----0-------0----0-------0-|-----0-------0----0-----0--|-----0-------0----0-------0-| 
---------6------------6-----|---------6-----------------|---------0------------0-----| 
-----7-----7------7-----7---|-----7-----7------7-----5--|-----2-----2------2-----2---| 
--7------------7------------|--7------------7-----5-----|----------------------------| 
----------------------------|---------------------------|--0------------0------------| 


                  3                                                                    
  E  E.  S S S E  E.  E  E     E  E.  S S S E  E.  S S S    E  E.  S S S E  E  E  E    
----------------------------|----------------------------|---------------------------| 
-----0-------0----0------0--|-----0-------0----0-------0-|-----0-------0----0-----0--| 
---------0------------------|---------6------------6-----|---------6-----------------| 
-----2-----2-------------5--|-----7-----7------7-----7---|-----7-----7------7-----5--| 
----------------------5-----|--7------------7------------|--7------------7-----5-----| 
--0------------0------------|----------------------------|---------------------------| 


                                               3                                        
  E  E.  S S S E  E.  S S S    E  E.  S S S E  E.  E  E     E  E.  S S S E  E.  S S S   
----------------------------|----------------------------|----------------------------| 
-----0-------0----0-------0-|-----0-------0----0------0--|-----0-------0----0-------0-| 
---------0------------0-----|---------0------------------|---------6------------6-----| 
-----2-----2------2-----2---|-----2-----2-------------5--|-----7-----7------7-----7---| 
----------------------------|----------------------5-----|--7------------7------------| 
--0------------0------------|--0------------0------------|----------------------------| 


  E  E.  S S S E  E  E  E     E  E.  S S S E  E.  S S S    E  E.  S S S E  E.  S S S   
---------------------------|----------------------------|----------------------------| 
-----0-------0----0-----0--|-----0-------0----0-------0-|-----0-------0----0---------| 
---------6-----------------|---------0------------0-----|---------0------------0-----| 
-----7-----7------7-----5--|-----2-----2------2-----2---|-----2-----2------2-----2---| 
--7------------7-----5-----|----------------------------|----------------------------| 
---------------------------|--0------------0------------|--0------------0------------| 

                               
  E  E  E  E  E  S E  S S S    E  S E  S E  E  S E  S E     E  E  E  E  E  S E  S S S   
----------------------------|----------------------------|----------------------------| 
--3-----1-----0-------0-----|--3-------0----1-------1----|--3-----3-----0-------0-----| 
-------------------0--------|-------2------------0-------|-------------------0--------| 
-----2-----2-----0------0---|--0--0------0-----2------2--|-----2-----2-----0------0---| 
--3--L--3--L----------------|---------------3------------|--3--L--3--L----------------| 
--------------3-------------|----------------------------|--------------3-------------| 


  E  S E  S E  E  S E  S E     E  E  E  E  E  S E  S S S    E  S E  S E  E  S E  S E    
----------------------------|----------------------------|----------------------------| 
--0-------0----0-------0----|--3-----1-----0-------0-----|--3-------0----1-------1----| 
-------0--0---------0--0----|-------------------0--------|-------2------------0-------| 
-----2------2-----2------2--|-----2-----2-----0------0---|--0--0------0-----2------2--| 
----------------------------|--3--L--3--L----------------|---------------3------------| 
--0------------0------------|--------------3-------------|----------------------------| 


  E  E  E  E  E  S E  S S S    E  S E  S E  E  E  E  E     E  E.  S S S E  E.  S S S   
----------------------------|---------------------------|----------------------------| 
--3-----3-----0-------0-----|--0-------0----0--0-----0--|-----0-------0----0-------0-| 
-------------------0--------|-------0--0----------------|---------6------------6-----| 
-----2-----2-----0------0---|-----2------2-----------5--|-----7-----7------7-----7---| 
--3--L--3--L----------------|---------------------5-----|--7------------7------------| 
--------------3-------------|--0------------0-----------|----------------------------| 


                                                                           3           
  E  E.  S S S E  E  E  E     E  E.  S S S E  E.  S S S    E  E.  S S S E  E.  E  E    
---------------------------|----------------------------|----------------------------| 
-----0-------0----0-----0--|-----0-------0----0-------0-|-----0-------0----0------0--| 
---------6-----------------|---------0------------0-----|---------0------------------| 
-----7-----7------7-----5--|-----2-----2------2-----2---|-----2-----2-------------5--| 
--7------------7-----5-----|----------------------------|----------------------5-----| 
---------------------------|--0------------0------------|--0------------0------------| 


  E  E.  S S S E  E.  S S S    E  E.  S S S E  E  E  E     E  E.  S S S E  E.  S S S   
----------------------------|---------------------------|----------------------------| 
-----0-------0----0-------0-|-----0-------0----0-----0--|-----0-------0----0-------0-| 
---------6------------6-----|---------6-----------------|---------0------------0-----| 
-----7-----7------7-----7---|-----7-----7------7-----5--|-----2-----2------2-----2---| 
--7------------7------------|--7------------7-----5-----|----------------------------| 
----------------------------|---------------------------|--0------------0------------| 


                  3                                                                    
  E  E.  S S S E  E.  E  E     E  E.  S S S E  E.  S S S    E  E.  S S S E  E  E  E    
----------------------------|----------------------------|---------------------------| 
-----0-------0----0------0--|-----0-------0----0-------0-|-----0-------0----0-----0--| 
---------0------------------|---------6------------6-----|---------6-----------------| 
-----2-----2-------------5--|-----7-----7------7-----7---|-----7-----7------7-----5--| 
----------------------5-----|--7------------7------------|--7------------7-----5-----| 
--0------------0------------|----------------------------|---------------------------| 


                                               3                                        
  E  E.  S S S E  E.  S S S    E  E.  S S S E  E.  E  E     E  E.  S S S E  E.  S S S   
----------------------------|----------------------------|----------------------------| 
-----0-------0----0-------0-|-----0-------0----0------0--|-----0-------0----0-------0-| 
---------0------------0-----|---------0------------------|---------6------------6-----| 
-----2-----2------2-----2---|-----2-----2-------------5--|-----7-----7------7-----7---| 
----------------------------|----------------------5-----|--7------------7------------| 
--0------------0------------|--0------------0------------|----------------------------| 


                                                                           3           
  E  E.  S S S E  E  E  E     E  E.  S S S E  E.  S S S    E  E.  S S S E  E.  E  E    
---------------------------|----------------------------|----------------------------| 
-----0-------0----0-----0--|-----0-------0----0-------0-|-----0-------0----0------0--| 
---------6-----------------|---------0------------0-----|---------0------------------| 
-----7-----7------7-----5--|-----2-----2------2-----2---|-----2-----2-------------5--| 
--7------------7-----5-----|----------------------------|----------------------5-----| 
---------------------------|--0------------0------------|--0------------0------------| 


  E  E.  S S S E  E.  S S S    E  E.  S S S E  E  E  E     E  E.  S S S E  E.  S S S   
----------------------------|---------------------------|----------------------------| 
-----0-------0----0-------0-|-----0-------0----0-----0--|-----0-------0----0-------0-| 
---------6------------6-----|---------6-----------------|---------0------------0-----| 
-----7-----7------7-----7---|-----7-----7------7-----5--|-----2-----2------2-----2---| 
--7------------7------------|--7------------7-----5-----|----------------------------| 
----------------------------|---------------------------|--0------------0------------| 


  E  E.  S S S E  E.  S S S    E  E  E  E  E  S E  S S S    E  S E  S E  E  S E  S E    
----------------------------|----------------------------|----------------------------| 
-----0-------0----0---------|--3-----1-----0-------0-----|--3-------0----1-------1----| 
---------0------------0-----|-------------------0--------|-------2------------0-------| 
-----2-----2------2-----2---|-----2-----2-----0------0---|--0--0------0-----2------2--| 
----------------------------|--3--L--3--L----------------|---------------3------------| 
--0------------0------------|--------------3-------------|----------------------------| 


  E  E  E  E  E  S E  S S S    E  S E  S E  E  S E  S E     E  E  E  E  E  S E  S S S   
----------------------------|----------------------------|----------------------------| 
--3-----3-----0-------0-----|--0-------0----0-------0----|--3-----1-----0-------0-----| 
-------------------0--------|-------0--0---------0--0----|-------------------0--------| 
-----2-----2-----0------0---|-----2------2-----2------2--|-----2-----2-----0------0---| 
--3--L--3--L----------------|----------------------------|--3--L--3--L----------------| 
--------------3-------------|--0------------0------------|--------------3-------------| 


  E  S E  S E  E  S E  S E     E  E  E  E  E  S E  S S S    E  S E  S E  E  E  E  E    
----------------------------|----------------------------|---------------------------| 
--3-------0----1-------1----|--3-----3-----0-------0-----|--0-------0----0--0-----0--| 
-------2------------0-------|-------------------0--------|-------0--0----------------| 
--0--0------0-----2------2--|-----2-----2-----0------0---|-----2------2-----------5--| 
---------------3------------|--3--L--3--L----------------|---------------------5-----| 
----------------------------|--------------3-------------|--0------------0-----------| 


  E  E.  S S S E  E.  S S S    E  E.  S S S E  E  E  E     E  E.  S S S E  E.  S S S   
----------------------------|---------------------------|----------------------------| 
-----0-------0----0-------0-|-----0-------0----0-----0--|-----0-------0----0-------0-| 
---------6------------6-----|---------6-----------------|---------0------------0-----| 
-----7-----7------7-----7---|-----7-----7------7-----5--|-----2-----2------2-----2---| 
--7------------7------------|--7------------7-----5-----|----------------------------| 
----------------------------|---------------------------|--0------------0------------| 


                  3                                                                    
  E  E.  S S S E  E.  E  E     E  E.  S S S E  E.  S S S    E  E.  S S S E  E  E  E    
----------------------------|----------------------------|---------------------------| 
-----0-------0----0------0--|-----0-------0----0-------0-|-----0-------0----0-----0--| 
---------0------------------|---------6------------6-----|---------6-----------------| 
-----2-----2-------------5--|-----7-----7------7-----7---|-----7-----7------7-----5--| 
----------------------5-----|--7------------7------------|--7------------7-----5-----| 
--0------------0------------|----------------------------|---------------------------| 


  E  E.  S S S E  E.  S S S    E  E.  S S S E  E.  S S S    E  E.  S S S E  E  E  E    
----------------------------|----------------------------|---------------------------| 
-----0-------0----0-------0-|-----0-------0----0---------|-----1-------1----1-----0--| 
---------0------------0-----|---------0------------0-----|---------2--------------0--| 
-----2-----2------2-----2---|-----2-----2------2-----2---|-----2-----2------2--------| 
----------------------------|----------------------------|--0------------0-----------| 
--0------------0------------|--0------------0------------|---------------------3-----| 


  E  E.  S S S E  E.  S S S    E  E.  S S S E  E  E  E     E  E.  S S S E  E.  S S S   
-----0-------0----0-------0-|---------------------------|-----0-------0----0-------0-| 
---------3------------3-----|-----1-------1----1-----0--|---------3------------3-----| 
-----2-----2------2-----2---|---------2--------------0--|-----2-----2------2-----2---| 
--0------------0------------|-----2-----2------2--------|--0------------0------------| 
----------------------------|--0------------0-----------|----------------------------| 
----------------------------|---------------------3-----|----------------------------| 


  E  E.  S S S E  E  E  E     E  E.  S S S E  E.  S S S    E  E.  S S S E  E  E  E    
---------------------------|-----0-------0----0-------0-|---------------------------| 
-----1-------1----1-----0--|---------3------------3-----|-----1-------1----1--------| 
---------2--------------0--|-----2-----2------2-----2---|---------2-----------------| 
-----2-----2------2--------|--0------------0------------|-----2-----2------2-----0--| 
--0------------0-----------|----------------------------|--0------------0-----2-----| 
---------------------3-----|----------------------------|---------------------------| 


  E  E.  S S S E  E.  S S S                                                
----------------------------|----|----|----|----|----|----|----|----|----| 
-----0-------0----0-------0-|----|----|----|----|----|----|----|----|----| 
---------0------------0-----|----|----|----|----|----|----|----|----|----| 
-----2-----2------2-----2---|----|----|----|----|----|----|----|----|----| 
----------------------------|----|----|----|----|----|----|----|----|----| 
--0------------0------------|----|----|----|----|----|----|----|----|----| 


  E  E  E  E  E  S E  S S S    E  S E  S E  E  S E  S E     E  E  E  E  E  S E  S S S   
----------------------------|----------------------------|----------------------------| 
--3-----1-----0-------0-----|--3-------0----1-------1----|--3-----3-----0-------0-----| 
-------------------0--------|-------2------------0-------|-------------------0--------| 
-----2-----2-----0------0---|--0--0------0-----2------2--|-----2-----2-----0------0---| 
--3--L--3--L----------------|---------------3------------|--3--L--3--L----------------| 
--------------3-------------|----------------------------|--------------3-------------| 


  E  S E  S E  E  S E  S E     E  E  E  E  E  S E  S S S    E  S E  S E  E  S E  S E    
----------------------------|----------------------------|----------------------------| 
--0-------0----0-------0----|--3-----1-----0-------0-----|--3-------0----1-------1----| 
-------0--0---------0--0----|-------------------0--------|-------2------------0-------| 
-----2------2-----2------2--|-----2-----2-----0------0---|--0--0------0-----2------2--| 
----------------------------|--3--L--3--L----------------|---------------3------------| 
--0------------0------------|--------------3-------------|----------------------------| 


  E  E  E  E  E  S E  S S S    E  S E  S E  E  S E  S E     E  E  E  E  E  S E  S S S   
----------------------------|----------------------------|----------------------------| 
--3-----3-----0-------0-----|--0-------0----0-------0----|--3-----3-----0-------0-----| 
-------------------0--------|-------0--0---------0--0----|-------------------0--------| 
-----2-----2-----0------0---|-----2------2-----2------2--|-----2-----2-----0------0---| 
--3--L--3--L----------------|----------------------------|--3--L--3--L----------------| 
--------------3-------------|--0------------0------------|--------------3-------------| 


  E  S E  S E  E  S E  S E     E  E  E  E  E  S E  S S S    E  S E  S E  E  S E  S E    
----------------------------|----------------------------|----------------------------| 
--3-------0----1-------1----|--3-----3-----0-------0-----|--0-------0----0-------0----| 
-------2------------0-------|-------------------0--------|-------0--0---------0--0----| 
--0--0------0-----2------2--|-----2-----2-----0------0---|-----2------2-----2------2--| 
---------------3------------|--3--L--3--L----------------|----------------------------| 
----------------------------|--------------3-------------|--0------------0------------| 


  E  E  E  E  E  S E  S S S    E  S E  S E  E  S E  S E     E  E  E  E  E  S E  S S S   
----------------------------|----------------------------|----------------------------| 
--3-----1-----0-------0-----|--3-------0----1-------1----|--3-----3-----0-------0-----| 
-------------------0--------|-------2------------0-------|-------------------0--------| 
-----2-----2-----0------0---|--0--0------0-----2------2--|-----2-----2-----0------0---| 
--3--L--3--L----------------|---------------3------------|--3--L--3--L----------------| 
--------------3-------------|----------------------------|--------------3-------------| 


                              ^                   
  E  S E  S E  E  E  E  E     W                   
---------------------------|--0----------------|| 
--0-------0----0--0-----0--|--0----------------|| 
-------0--0----------------|--6----------------|| 
-----2------2-----------5--|--7----------------|| 
---------------------5-----|--7----------------|| 
--0------------0-----------|-------------------|| 




Duration Legend 
--------------- 
W - whole 
H - half 
Q - quarter 
E - 8th 
S - 16th 
T - 32nd 
X - 64th 
. - note dotted 
|-n-|  - n-tuplets 


Tablature Legend 
---------------- 
L - tied note 
x - dead note 
g - grace note 
(n) - ghost note 
> - accentuded note 
NH - natural harmonic 
AH - artificial harmonic 
TH - tapped harmonic 
SH - semi harmonic 
PH - pitch harmonic 
h - hammer on 
p - pull off 
b - bend 
br - bendRelease 
pb - preBend 
pbr - preBendRelease 
brb - bendReleaseBend 
\n/ - tremolo bar dip 
\n - tremolo bar dive 
-/n - tremolo bar Release up 
/n\ - tremolo bar inverted dip 
/n - tremolo bar return 
-\n - tremolo bar Release down 
S - shift slide 
s - legato slide 
/ -  slide into from below or out of upwards 
\ -  slide into from above or out of downwards 
~ - vibrato 
W - wide vibrato 
tr - trill 
TP - tremolo picking 
T - tapping 
S - slap 
P - pop 
< - fade in 
^ - brush up 
v - brush down 

Compartilhe esta música: novo

QR Code
Copiar