Prepare For Attack

Havok

Tom: E
Riff 1 
e|------------------------------------------------------| 
B|------------------------------------------------------| 
G|------------------------4-----3-----------------------| 
D|------2-----------5-----4-----3-------2---------------| 
A|------2-----------5-----2-----1-------2---------------| 
E|--00000-----------3---------------00000---------------| 
    ****                            **** 


Riff 2 
Guitar 1 
e|------------------------------------------------------| 
B|------------------------------------------------------| 
G|------------------------4-----3-----------------------| 
D|------2-----------5-----4-----3-------2---------------| 
A|------2-----------5-----2-----1-------2---------------| 
E|--00000-----------3---------------00000---------------| 
    ****                            **** 

e|----------------------------------| 
B|----------------------------------| 
G|------------------------4-----3---| 
D|------2-----------5-----4-----3---| 
A|------2-----------5-----2-----1---| 
E|--00000-----------3---------------| 
    ****                           

e|-----------------------------------| 
B|-----------------------------------| 
G|-----------------------------------| 
D|------4-----3----------------------| 
A|------2-----1-----5----------------| 
E|--0000--0000--00003-------31003100-| 
    ****  ****  ****        ******** 

Guitar 2 
e|----------------------------------| 
B|----------------------------------| 
G|----------------------------------| 
D|------4-----3-----------4-----3-3-| 
A|------2-----1-----5-----2-----1-1-| 
E|--0000--0000--00003-0000--0000----| 
    ****  ****  ****  ****  **** 

e|-----------------------------------| 
B|-----------------------------------| 
G|-----------------------------------| 
D|------4-----3----------------------| 
A|------2-----1-----5----------------| 
E|--0000--0000--00003-00000031003100-| 
    ****  ****  ****  ************** 

e|----------------------------------| 
B|----------------------------------| 
G|----------------------------------| 
D|------4-----3-----------4-----3-3-| 
A|------2-----1-----5-----2-----1-1-| 
E|--0000--0000--00003-0000--0000----| 
    ****  ****  ****  ****  **** 

e|-----------------------------------| 
B|-----------------------------------| 
G|-----------------------------------| 
D|------4-----3----------------------| 
A|------2-----1-----5----------------| 
E|--0000--0000--00003-------31003100-| 
    ****  ****  ****        ******** 


Riff 3 
e|----------------------------------| 
B|----------------------------------| 
G|----------------------------------| 
D|------4-----3-----------4-----3-3-| 
A|------2-----1-----5-----2-----1-1-| 
E|--0000--0000--00003-0000--0000----| 
    ****  ****  ****  ****  **** 

e|-----------------------------------| 
B|-----------------------------------| 
G|-----------------------------------| 
D|------4-----3----------------------| 
A|------2-----1-----5----------------| 
E|--0000--0000--00003-00000031003100-| 
    ****  ****  ****  ************** 


Riff 4 
e|-----------------------------------| 
B|-----------------------------------| 
G|-----------------------------------| 
D|-----------------------------------| 
A|-----------------------------------| 
E|--0-000-0000000-0000000-0000000-00-| 
    * *** ******* ******* ******* ** 


e|------------------------------------| 
B|------------------------------------| 
G|------------------------------------| 
D|------4-----3-------------4-----3-3-| 
A|------2-----1-----5-------2-----1-1-| 
E|--0000--0000--00003-000000--0000----| 
    ****  ****  ****  ******  **** 


Riff 5 
e|---------------------------------| 
B|---------------------------------| 
G|-2-------3-------5-------7---8-9-| 
D|-2-------3-------5-------7---8-9-| 
A|-0-------1-------3-------5---6-7-| 
E|---------------------------------| 


Riff 6 
e|-----------------------------------------------------------------| 
B|-----------------------------------------------------------------| 
G|---------------------------------5-5-----5-5---------------------| 
D|-7-7-----7-7-----3-3-----3-3-----5-5-----5-5-----5-5-------------| 
A|-7-7-----7-7-----3-3-----3-3-----3-3-----3-3-----5-5-----5-5-6-6-| 
E|-5-5---0-5-5---0-1-1---0-1-1---0-------0-------0-3-3---0-3-3-4-4-| 
         *       *       *       *       *       *       *  


Riff 7 
e|---------------------------| 
B|---------------------------| 
G|---------------------------| 
D|---------------------------| 
A|-0-0-3p0-0-5p0-0-6p0-0-3h5-| 
E|---------------------------| 


Riff 8 
e|-------------------| 
B|-------------------| 
G|-------------------| 
D|-------------------| 
A|-0--3--5--6--5--3--| 
E|-------------------| 

Riff 9 
e|-------------------| 
B|-------------------| 
G|-------------------| 
D|-------------------| 
A|-6--5--3-----------| 
E|----------6--5--3--| 


Riff 10 
e|-----------------------------------------------------------------| 
B|-----------------------------------------------------------------| 
G|-----------------------------------------------------------------| 
D|-------------------------------3-------------------------------3-| 
A|-------------------------------1-------------------------------1-| 
E|-0-000-0000000-0000000-0000000-----000-0000000-0000000-0000000---| 
   * *** ******* ******* *******     *** ******* ******* ******* 

e|-------------------------------------------------------------------| 
B|-------------------------------------------------------------------| 
G|-(3)---------------------------------------------------------------| 
D|-(3)-----------------------------3-------------------------------3-| 
A|-(1)-----------------------------1-------------------------------1-| 
E|-----000-0000000-0000000-0000000-----000-0000000-0000000-0000000---| 
       *** ******* ******* *******     *** ******* ******* ******* 


Riff 11 
e|----------------------------------| 
B|----------------------------------| 
G|----------------------------------| 
D|------4-----3-----------4-----3---| 
A|------2-----1-----5-----2-----1---| 
E|--0---------------3---------------| 
    *    

e|-----------------------------------| 
B|-----------------------------------| 
G|-----------------------------------| 
D|------4-----3----------------------| 
A|------2-----1-----5----------------| 
E|--0---------------3-------31003100-| 
    *                       ******** 


Riff 12 
e|---------------------------------| 
B|---------------------------------| 
G|---------------------------------| 
D|---------------------------------| 
A|-0-0-3p0-0-5p0-0-6p0-0-5p0-0-3h5-| 
E|---------------------------------| 
   * * * * * * * * * * * * * * * * 


Riff 13 
e|-----| 
B|-----| 
G|-----| 
D|-2---| 
A|-2---| 
E|-0---| 
 

Compartilhe esta música: novo

QR Code
Copiar