D.O.A.

Havok

Riff 1 
Guitar 1 
e|---------------------------------| 
B|---------------------------------| 
G|---------------------------------| 
D|-5-----5---------5-----5---------| 
A|-7-----7---------7-----7---------| 
E|---0-0---0-0-0-0---0-0---0-0-0-0-| 
     * *   * * * *   * *   * * * * 

e|---------------------------------| 
B|---------------------------------| 
G|---------------------------------| 
D|-2-----2---------4-----4---------| 
A|-3-3-3-3-3-3-3-3-6-6-6-6-6-6-6-6-| 
E|---------------------------------| 
     * *   * * * *   * *   * * * * 

e|---------------------------------| 
B|---------------------------------| 
G|---------------------------------| 
D|-5-----5---------5-----5---------| 
A|-7-----7---------7-----7---------| 
E|---0-0---0-0-0-0---0-0---0-0-0-0-| 
     * *   * * * *   * *   * * * * 

e|---------------------------------| 
B|---------------------------------| 
G|---------------------------------| 
D|-4-----4---------2---------------| 
A|-5-5-5-5-5-5-5-5-3-3-3-3-2-2-----| 
E|-----------------------------3-2-| 
     * *   * * * *   * * * * * * * 

Guitar 2 
e|-----------------------------------| 
B|---7-8-10--8-7h8p7---7-------------| 
G|-9-----------------9---9-9-9-------| 
D|-----------------------------------| 
A|-----------------------------------| 
E|-----------------------------------| 


e|-----------------------------------| 
B|---7-8-10--8-7h8p7---7-------------| 
G|-9-----------------9---9-8-8-------| 
D|-----------------------------------| 
A|-----------------------------------| 
E|-----------------------------------| 


e|---------------------7-------------| 
B|---7-8-10--8-7h8p7-----8---------8-| 
G|-9-----------------9-----9-9---9---| 
D|-----------------------------------| 
A|-----------------------------------| 
E|-----------------------------------| 


e|-------------------------------------| 
B|-12-8---10-7-----8-12-8---10-7-----7-| 
G|------9------8-9--------9------8-9---| 
D|-------------------------------------| 
A|-------------------------------------| 
E|-------------------------------------| 

Guitar 3 (Only On 2nd Time) 
e|----------8------------------------------| 
B|----10-12----12-10h12p10----10-----------| 
G|-12----------------------12----12-12-12--| 
D|-----------------------------------------| 
A|-----------------------------------------| 
E|-----------------------------------------| 


e|----------8------------------------------| 
B|----10-12----12-10h12p10----10-----------| 
G|-12----------------------12----12-11-11--| 
D|-----------------------------------------| 
A|-----------------------------------------| 
E|-----------------------------------------| 


e|----------8-----------------10-------------| 
B|----10-12----12-10h12p10-------12-------12-| 
G|-12----------------------12------12--12----| 
D|-------------------------------------------| 
A|-------------------------------------------| 
E|-------------------------------------------| 

e|-------------------------------------------------| 
B|-15-12----13-10-------12-15-12----13-10-------10-| 
G|-------12-------11-12----------12-------11-12----| 
D|-------------------------------------------------| 
A|-------------------------------------------------| 
E|-------------------------------------------------| 

End To Riff 1 
e|---------------------------------| 
B|-8~------------------------------| Guitar 3 
G|-9~------------------------------| Guitar 2 
D|-2~------------------------------| | 
A|-2~------------------------------| Guitar 1 
E|-0~--------------------------12\-| | 


Riff 2 
e|-------------------------------------------------| 
B|-------------------------------------------------| 
G|-------------------------------------4-----------| 
D|-------5-4---------7-5-4-------5-4-----7-5-4-----| 
A|-----------7-----------------------7---------7-6-| 
E|-0-0-0-------0-0-0-------0-0-0-------------------| 
   * * *       * * *       * * *      

Riff 3 
Guitar 1 
e|-------------------------------------------------| 
B|-------------------------------------------------| 
G|-------------------------------------4-----------| 
D|-------5-4---------7-5-4-------5-4-----7-5-4-----| 
A|-----------7-----------------------7---------7-6-| 
E|-0-0-0-------0-0-0-------0-0-0-------------------| 
   * * *       * * *       * * *      

Guitar 2 
e|-------------------------------------------------| 
B|-------------------------------------------------| 
G|-------4-----------5-4---------4-----7-5-4-------| 
D|---------7-5-----------7---------7-5-------7-5-4-| 
A|-------------------------------------------------| 
E|-0-0-0-------0-0-0-------0-0-0-------------------| 
   * * *       * * *       * * *  

Riff 4 
e|-----------------------------------------------| 
B|-----------------------------------------------| 
G|-----------------------------------------------| 
D|-----------------------------------------------| 
A|-------5tr6-------3tr4-------------3-2-0-------| 
E|-0-0-0------0-0-0------0-0-0-0-0-0-------3-2-0-| 
   * * *      * * *      * * * * * * * * * * * * 

Riff 5 
Guitar 1 
e|-----------------------------------------------| 
B|-----------------------------------------------| 
G|-----------------------------------------------| 
D|-----------------------------------------------| 
A|-----------------------------------3-2-0-------| 
E|-0-0-0-5tr6-0-0-0-3tr4-0-0-0-0-0-0-------3-2-0-| 
   * * *      * * *      * * * * * * * * * * * * 

Guitar 2 
e|-----------------------------------------------| 
B|-----------------------------------------------| 
G|-----------------------------------------------| 
D|-----------------------------------------------| 
A|-------5tr6-------3tr4-------------3-2-0-------| 
E|-0-0-0------0-0-0------0-0-0-0-0-0-------3-2-0-| 
   * * *      * * *      * * * * * * * * * * * * 

Riff 6 
Guitar 1 
e|-------------------------------------------------| 
B|-------------------------------------------------| 
G|-------------------------------------4-----------| 
D|-------5p4---------7-5-4-------5p4-----7-5-4-----| 
A|-----------7-----------------------7---------7-6-| 
E|-0-0-0-------0-0-0-------0-0-0-------------------| 
   * * *       * * *       * * *      

Guitar 2 
e|-------------------------------------------------| 
B|-------------------------------------------------| 
G|-------------------------------------------------| 
D|-2~----------------------------------------------| 
A|-2~----------------------------------------------| 
E|-0~----------------------------------------------| 


e|-------------------------------------------------| 
B|-------------------------------------------------| 
G|-------------------------------------------------| 
D|-2-----------------------------------------------| 
A|-2-----------------------------------------------| 
E|-0-----------------------------------------------| 


e|-------------------------------------------------| 
B|-------------------------------------------------| 
G|-------------------------------------------------| 
D|-2~----------------------------------------------| 
A|-2~----------------------------------------------| 
E|-0~----------------------------------------------| 


e|-------------------------------------------------| 
B|-------------------------------------------------| 
G|-------4-----------5-4---------4-----7-5-4-------| 
D|---------7-5-----------7---------7-5-------7-5-4-| 
A|-------------------------------------------------| 
E|-0-0-0-------0-0-0-------0-0-0-------------------| 
   * * *       * * *       * * *  

Riff 7 
Guitar 1 
e|-------------------------------------| 
B|-------------------------------------| 
G|-----------------------7h8p7---7-----| 
D|-----------------------------9---9-8-| 
A|-------------------------------------| 
E|-0--00000--00000--0000---------------| 
   *  *****  *****  **** 

e|-------------------------------------| 
B|-------------------------------------| 
G|-----------------------7h8p7---7-----| 
D|-----------------------------9---9-8-| 
A|-------------------------------------| 
E|-0--00000--00000--0000---------------| 
   *  *****  *****  **** 

e|-------------------------------------| 
B|-------------------------------------| 
G|-----------------------7h8p7---7-----| 
D|-----------------------------9---9-8-| 
A|-------------------------------------| 
E|-0--00000--00000--0000---------------| 
   *  *****  *****  **** 

e|--------------------------------------------| 
B|--------------------------------------------| 
G|----------------7h8p7---7-------------------| 
D|----------------------9---9-8-7h8p7---7-----| 
A|------------------------------------9---9-8-| 
E|-0--00000--0000-----------------------------| 
   *  *****  **** 

Guitar 2 
e|-------------------------------------| 
B|-------------------------------------| 
G|-----------------------7h8p7---7-----| 
D|-----------------------------9---9-8-| 
A|-------------------------------------| 
E|-0--00000--00000--0000---------------| 
   *  *****  *****  **** 

e|--------------------------------------------| 
B|--------------------------------------------| 
G|-----------------------10h11p10----10-------| 
D|--------------------------------12----12-11-| 
A|--------------------------------------------| 
E|-0--00000--00000--0000----------------------| 
   *  *****  *****  **** 

e|-------------------------------------| 
B|-------------------------------------| 
G|-----------------------7h8p7---7-----| 
D|-----------------------------9---9-8-| 
A|-------------------------------------| 
E|-0--00000--00000--0000---------------| 
   *  *****  *****  **** 

e|----------------------------------------------------------| 
B|----------------------------------------------------------| 
G|----------------10h11p10----10----------------------------| 
D|-------------------------12----12-11-10h11p10----10-------| 
A|----------------------------------------------12----12-11-| 
E|-0--00000--0000-------------------------------------------| 
   *  *****  **** 

Riff 8 
Guitar 1 
e|------------------------------------| 
B|------------------------------------| 
G|------------------------------------| 
D|------------------------------------| 
A|-7\-------------2---1-----------2---| 
E|------2---2-3---------2---2-3-------| 

Guitar 2 
e|------------------------------------| 
B|------------------------------------| 
G|------------------------------------| 
D|------------------------------------| 
A|-10\------------5---4-----------4---| 
E|------5---5-6---------5---5-6-------| 


Riff 9 
Guitar 1 
e|-------------------------------------| 
B|-------------------------------------| 
G|-----------------------7h8p7---7-----| 
D|-----------------------------9---9-8-| 
A|-------------------------------------| 
E|-0--00000--00000--0000---------------| 
   *  *****  *****  **** 

e|------------------------------| 
B|------------------------------| 
G|----------------7h8p7---7-----| 
D|----------------------9---9-8-| 
A|------------------------------| 
E|-0--00000--0000---------------| 
   *  *****  *****  **** 

e|-------------------------------| 
B|-------------------------------| 
G|-------------------------------| 
D|-7h8p7---7---------------------| 
A|-------9---9-8-7h8p7---7-------| 
E|---------------------9---9-8-7-| 

Guitar 2 
e|-------------------------------------| 
B|-------------------------------------| 
G|-----------------------7h8p7---7-----| 
D|-----------------------------9---9-8-| 
A|-------------------------------------| 
E|-0--00000--00000--0000---------------| 
   *  *****  *****  **** 

e|-------------------------------------| 
B|-------------------------------------| 
G|----------------10h11p10----10-------| 
D|-------------------------12----12-11-| 
A|-------------------------------------| 
E|-0--00000--0000----------------------| 
   *  *****  **** 

e|----------------------------------------------| 
B|----------------------------------------------| 
G|----------------------------------------------| 
D|-10h11p10----10-------------------------------| 
A|----------12----12-11-10h11p10----10----------| 
E|-------------------------------12----12-11-10-| 


Riff 10 
Guitar 1 
e|-------------------------------------------------| 
B|-------------------------------------------------| 
G|-6h7p6---6---------------------------------------| 
D|-------8---8-7-6h7p6---6-------------------------| 
A|---------------------8---8-7-6h7p6---6-----------| 
E|-----------------------------------8---8-7-6--9--| 


e|-----------------------------------------------| 
B|-----------------------------------------------| 
G|-4h5p4---4-------------------------------------| 
D|-------6---6-5-4h5p4---4-----------------------| 
A|---------------------6---6-5-4h5p4---4---------| 
E|-----------------------------------6---6-5-4---| 


e|-------------------------------------------------| 
B|-------------------------------------------------| 
G|-3h4p3---3---------------------------------------| 
D|-------5---5-4-3h4p3---3-------------------------| 
A|---------------------5---5-4-3h4p3---3-----------| 
E|-----------------------------------5---5-4-3--1--| 


Guitar 2 
e|-------------------------------------------------| 
B|-------------------------------------------------| 
G|-6h7p6---6---------------------------------------| 
D|-------8---8-7-6h7p6---6-------------------------| 
A|---------------------8---8-7-6h7p6---6-----------| 
E|-----------------------------------8---8-7-6--9--| 


e|-----------------------------------------------| 
B|-----------------------------------------------| 
G|-7h8p7---7-------------------------------------| 
D|-------9---9-8-7h8p7---7-----------------------| 
A|---------------------9---9-8-7h8p7---7---------| 
E|-----------------------------------9---9-8-7---| 


e|-------------------------------------------------| 
B|-------------------------------------------------| 
G|-3h4p3---3---------------------------------------| 
D|-------5---5-4-3h4p3---3-------------------------| 
A|---------------------5---5-4-3h4p3---3-----------| 
E|-----------------------------------5---5-4-3--1--| 


End To Riff 10 
e|------------------------------------| 
B|------------------------------------| 
G|------------------------------------| 
D|-2----------------------------------| 
A|-2---------------------------X\\\\--| 
E|-0---------------------------X\\\\--| 


Riff 11 
Guitar 1 
e|----------------------------------| 
B|----------------------------------| 
G|----------------------------------| 
D|----------------------------------| 
A|-----------------2222222211111111-| 
E|-0000000033333333-----------------| 

e|----------------------------------| 
B|----------------------------------| 
G|----------------------------------| 
D|----------------------------------| 
A|---------7777777766666666---------| 
E|-00000000----------------6---3----| 

e|------------------------------------| 
B|------------------------------------| 
G|------------------------------------| 
D|------------------------------------| 
A|-----------------22222222-1-2-1---2-| 
E|-0000000033333333---------------3-0-| 
                            * * * *  

Guitar 2 
e|----------------------------------| 
B|----------------------------------| 
G|----------------------------------| 
D|-2--------------------------------| 
A|-2--------------------------------| 
E|-0--------------------------------| 

e|----------------------------------| 
B|----------------------------------| 
G|----------------------------------| 
D|-2-----------------------8---5----| 
A|-2-----------------------8---5----| 
E|-0-----------------------6---3----| 

e|-------------------------------------| 
B|-------------------------------------| 
G|-------------------------------------| 
D|-2-----------------------------------| 
A|-2-------------------------1-2-1---2-| 
E|-0-------------------------------3-0-| 
                             * * * * 

Riff 12 
e|----------------------------------| 
B|----------------------------------| 
G|----------------------------------| 
D|----------------------------------| 
A|-----------------2222222211111111-| 
E|-0000000033333333-----------------| 

e|----------------------------------| 
B|----------------------------------| 
G|----------------------------------| 
D|----------------------------------| 
A|----------7777777766666666--------| 
E|-000000000----------------6---3---| 


Riff 13 
e|---------------------------------| 
B|---------------------------------| 
G|---------------------------------| 
D|---------------------------------| 
A|-------------------------1-2-1---| 
E|-0-0-0-0-4-3-2-3-0-0-0-0-------3-| 
   * * * * * * * * * * * * * * * *  

e|-------------------------------| 
B|-------------------------------| 
G|-------------------------------| 
D|-------------------------------| 
A|-----------------5tr6---3tr4---| 
E|-0-0-0-0-4-3-2-3------0------0-| 
   * * * * * * * *      *      * 


Riff 14 
e|----------------------------------| 
B|----------------------------------| 
G|----------------------------------| 
D|----------------------------------| 
A|-----------------2222222211111111-| 
E|-0000000033333333-----------------| 

e|----------------------------------| 
B|----------------------------------| 
G|----------------------------------| 
D|----------------------------------| 
A|----------777777776666666-2---2---| 
E|-000000000----------------0---0---| 


Riff 15 
e|----------------------------------| 
B|----------------------------------| 
G|----------------------------------| 
D|-2--------------------------------| 
A|-2--------------------------------| 
E|-0--------------------------------| 
 

Compartilhe esta música: novo

QR Code
Copiar