1985

Haken

Tom: E
Guitar 1, 0:00 -0:34 
                                            11x 
e|-0-0-----0--0-------0-0--------------0-0--||-0-0------0--0------------------------------------| 
B|-7-7-----10-10------9-9--------------5-5--||-7-7------10-10-----------------------------------| 
G|-6-6-----9--9-------8-8--------------4-4--||-6-6------9--9------------------------------------|  
D|-4-4-----7--7-------6-6--------------2-2--||-4-4------7--7------------------------------------|  
A|------------------------------------------||--------------------------------------------------| 
E|------------------------------------------||--------------------------------------------------| 
B|------------------------------------------||--------------------------------------------------| 

Guitar 2, 0:12-0:36 

e|----------------------------------------------------------------------------------------------| 
B|----------------------------------------------------------------------------------------------| 
G|----------------------------------------------------------------------------------------------| 
D|-------------------2-1------------------------------4-2--------2------------------------------| 
A|---------4-------------2--------------------0-4-2-------4-2------4-2----4-2---0-------------2-| 
E|-2--4-5-----2---4-5------2---0---0-0h2---0-2--------------------------------------2-4-4-5-5---| 
B|----------------------------------------------------------------------------------------------| 
  1.                    2.                                                                         2x 
e|-------------------||-------------------------------------------------------------------------| 
B|-------------------||-------------------------------------------------------------------------| 
G|-------------------||-------------------------------------------------------------------------| 
D|---------2---------||---4-2---2---------------------------------------------------------------| 
A|-2-2-4-4---4-2-4---||-------4---4-2-0-2-4-2-0-------------------------------------------------| 
E|-----------------2-||-------------------------2-0-2-------------------------------------------| 
B|-------------------||-------------------------------------------------------------------------| 



Both guitars, 0:36-1:00 
                                               1,2,3                     4 
e|--------------------------------------------||------------------------|-----------------------| 
B|--------------------------------------------||------------------------|-----------------------| 
G|--------------------------------------------||------------------------|-----------------------| 
D|-4----------------7-------------------------||--------------------2---|-----------------------|  4x 
A|-4----------------7--------------6----------||----4----2-----4----2---|-----------------------| 
E|-2-2-2-2-2-22-2---5-5-5-5-55-5---6----------||----4----2-----4--0-0---|-----------------0000--| 
B|---------------------------------4-4-4-44-4-||--2-2--0-0---2-2--------|-2222200000022222------| 
     .............    ..........     ........     .    .     .    .       .................... 



Both guitars, 1:00-1:33 

e|----------------------------------------------------------------------------------------------| 
B|----------------------------------------------------------------------------------------------| 
G|-------------------------------2---------------2----------------------------------------------| 
D|-4---------------4-------------2---------------2-------------4--------------------------------| 
A|-4---------------4-------------0---------------0-------------4--------------------------------| 
E|-2---------------2-------------------------------------------2--------------------------------| 
B|----------------------------------------------------------------------------------------------| 



Both guitars, 1:33-2:14 

              8x                   x7 
e|------------||-------------------||-----------------------------------------------------------| 
B|------------||-------------------||-----------------------------------------------------------| 
G|------------||-------------------||-----------------------------------------------------------| 
D|--4-----4---||-------------------||-----------4-2---2-----------------------------------------| 
A|------------||---------------0-2-||---------------4---4-2-0-2-4-2-0---------------------------| 
E|----2-2---2-||----0-2---0-2------||---0-2---------------------------2-0-2---------------------| 
B|------------||-------------------||-----------------------------------------------------------| 
    ......... 

Both guitars, 2:14-2:38 

e|----------------------------------------------------------------------------------------------| 
B|----------------------------------------------------------------------------------------------| 
G|----------------------------------------------------------------------------------------------| 
D|---4----4----4-----4-------------------------2----2----2-----2--------------------------------| 
A|---4----4----4-----4----4----4----4-----4----2----2----2-----2----2----2----2---0-2-0-2-0-----| 
E|-2-2--2-2--2-2---2-2----4----4----4-----4--0-0--0-0--0-0---0-0----2----2----2-----------------| 
B|----------------------2-2--2-2--2-2---2-2-----------------------0-0--0-0--0-0-----------------| 
   .    .    .     .    .    .    .     .    .    .    .     .    .    .    .     

e|----------------------------------------------------------------------------------------------| 
B|----------------------------------------------------------------------------------------------| 
G|----------------------------------------------------------------------------------------------| 
D|---4----4----4-----4-------------------------2----2----2-----2----7----7----6-----------------| 
A|---4----4----4-----4----5----5----5-----5----2----2----2-----2----7----7----7-----------------| 
E|-2-2--2-2--2-2---2-2----5----5----5-----5--0-0--0-0--0-0---0-0--5-5--5-5--4-4-----------------| 
B|----------------------3-3--3-3--3-3---3-3-----------------------------------------------------| 
   .    .    .     .    .    .    .     .    .    .    .     .    .    .    .     



Pretty sure this is played on an 8 string tuned to E 

2:38-2:49 

e|----------------------------------------------------------------------------------------------| 
B|----------------------------------------------------------------------------------------------| 
G|----------------------------------------------------------------------------------------------| 
D|----------------------------------------------------------------------------------------------| 
A|----------------------------------------------------------------------------------------------| 
E|----------------------------------------------------------------------------------------------| 
B|---------------------------------------------------------------------------4b--4b-------------| 
E|--2b-0-0--2b-0-0-0--2b-0-0--2b-2b-0-0--0---2b-0-0--2b-0-0-0-2b-0-0-2b-2b-0--------------------| 


Guitar 1, 2:49-3:10 

e|----------------------------------------------------------------------------------------------| 
B|----------------------------------------------------------------------------------------------| 
G|-6---------9----------4----------6----------9----------4----------6------------4--------------| 
D|---4---------7----------2----------4---------7-----------2----------4--------2----------------| 4x 
A|----------------------------------------------------------------------------------------------| 
E|----------------------------------------------------------------------------------------------| 
B|----------------------------------------------------------------------------------------------| 
   . .       . .        . .        . .        . .        . .         . .       . . 

Guitar 2:49-3:10 

e|----------------------------------------------------------------------------------------------| 
B|----------------------------------------------------------------------------------------------| 
G|----------------------------------------------------------------------------------------------| 
D|--4----4-----4-----4----4----4-------4---4----4------4------4-------4-----4-------------------| 
A|--4----4-----4-----4----4----4-------4---4----4------4------4-------4-----4-------------------| 
E|--2----2-----2-----2----2----2-------2---2----2------2------2-------2-----2-------------------| 
B|----------------------------------------------------------------------------------------------| 



Again, 8 string? Sounds too heavy to be whats tabbed here but I'll keep it for now. 

3:10-3:30 

e|----------------------------------------------------------------------------------------------| 
B|----------------------------------------------------------------------------------------------| 
G|----------------------------------------------------------------------------------------------| 
D|--2-4--4----4-----4----4----4----4-----4----2-4---4----4----4---4----4-----4---4-7-7----------| 
A|-------4----4-----4----4----4----4-----4----------4----4----4---4----4-----4---4-7-7----------| 
E|-------2--2-2---2-2--2-2--2-2--2-2---2-2----------2--2-2--2-2-2-2--2-2---2-2---2-5-5----------| 
B|----------------------------------------------------------------------------------------------| 
            .     .    .    .    .     .               .    .   .     .    . 
e|----------------------------------------------------------------------------------------------| 
B|----------------------------------------------------------------------------------------------| 
G|----------------------------------------------------------------------------------------------| 
D|--2-4--4----4-----4----4----4----4-----4----2-4--4----4----4---4----4--4-2-2------------------| 
A|-------4----4-----4----4----4----4-----4---------4----4----4---4----4-----4-4-2-0-2-4-2-0-----| 
E|-------2--2-2---2-2--2-2--2-2--2-2---2-2---------2--2-2--2-2-2-2--2-2--------------------2-0-2| 
B|----------------------------------------------------------------------------------------------| 
            .     .    .    .    .     .              .    .   .    .  


Both guitars, 3:30-3:54 

e|----------------------------------------------------------------------------------------------| 
B|----------------------------------------------------------------------------------------------| 
G|----------------------------------------------------------------------------------------------| 
D|---4----4----4-----4-------------------------2----2----2-----2--------------------------------| 
A|---4----4----4-----4----4----4----4-----4----2----2----2-----2----2----2----2---0-2-0-2-0-----| 
E|-2-2--2-2--2-2---2-2----4----4----4-----4--0-0--0-0--0-0---0-0----2----2----2-----------------| 
B|----------------------2-2--2-2--2-2---2-2-----------------------0-0--0-0--0-0-----------------| 
   .    .    .     .    .    .    .     .    .    .    .     .    .    .    .     

e|----------------------------------------------------------------------------------------------| 
B|----------------------------------------------------------------------------------------------| 
G|----------------------------------------------------------------------------------------------| 
D|---4----4----4-----4-------------------------2----2----2-----2----7----7----6-----------------| 
A|---4----4----4-----4----5----5----5-----4----2----2----2-----2----7----7----7-----------------| 
E|-2-2--2-2--2-2---2-2----5----5----5-----4--0-0--0-0--0-0---0-0--5-5--5-5--4-4-----------------| 
B|----------------------3-3--3-3--3-3---2-2-----------------------------------------------------| 
   .    .    .     .    .    .    .     .    .    .    .     .    .    .    .     


Guitar 1, 3:54-4:15 

e|----------------------------------------------------------------------------------------------| 
B|----------------------------------------------------------------------------------------------| 
G|----------------------------------------------------------------------------------------------| 
D|----------------------------------------------------------------------------------------------| 
A|----------------------------------------------------------------------------------------------|  
E|----------------------------------------------------------------------------------------------| 
B|---------------------------------------------------------------------------4b--4b-------------| 
E|--2b-0-0--2b-0-0-0--2b-0-0--2b-2b-0-0--0---2b-0-0--2b-0-0-0-2b-0-0-2b 2b-0--------------------| 

e|----------------------------------------------------------------------------------------------| 
B|----------------------------------------------------------------------------------------------| 
G|----------------------------------------------------------------------------------------------| 
D|----------------------------------------------------------------------------------------------| 
A|----------------------------------------------------------------------------------------------|  
E|----------------------------------------------------------------------------------------------| 
B|----------------------------------------------------------------------------------------------| 
E|--2b-0-0--2b-0-0-0--2b-0-0--2b-2b-0-0--0---2b-0-0--2b-0-0-0-2222222--2222222------------------| 


Guitar 1, 4:15-4:37 
                                     2x                                                        2x 
e|-----------------------------------||---------------------------------------------------------| 
B|-----------------------------------||---------------------------------------------------------| 
G|-----------------------------------||---------------------------------------------------------| 
D|-11----14\--9-----11----14\--9-11--||------14---17\----12----14---17\---12---14---------------| 
A|-----------------------------------||---------------------------------------------------------| 
E|-----------------------------------||---------------------------------------------------------| 
B|-----------------------------------||---------------------------------------------------------| 




 Guitar 1, 4:37-4:59 
                                                  2x                                           2x 
e|------------------------------------------------||--------------------------------------------| 
B|------------------------------------------------||-----8-10-------10---------8-10-------------| 
G|-------11-9-------11-9-------11-9---------------||--9-------9--9-----9----9-------9-----------| 
D|--11-9-------11-9------11-9---------------------||----9----------9----------------------------| 
A|----------------------------------12-10-9-10-12-||-----------------------------------12-10----|  
E|------------------------------------------------||-----------------------------------------12-| 
B|------------------------------------------------||--------------------------------------------| 

Guitar 2, 4:37-4:59 
                                                     2x                                        2x 
e|-----------------------------------------------------||---------------------------------------| 
B|-----------------------------------------------------||-----17------17-------17---------------| 
G|-13----18----13-----18---13----18--------------------||-16------16------16--------------------| 
D|----14----14----14----14----14----14--14-12-11-12/14-||---14--14--14--14---14---14--17-16\14--| 
A|-----------------------------------------------------||---------------------------------------|  
E|-----------------------------------------------------||---------------------------------------| 
B|-----------------------------------------------------||---------------------------------------| 


Guitar 1, 4:59-5:19 

e|----------------------------------------------------------------------------------------------| 
B|----------------------------------------------------------------------------------------------| 
G|-------11-9-------11-9----------11-9------11-9------11-9-------11-9-------11-9------11-9------| 
D|--11-9-------11-9--------11--9--------11-9------11-9------11-9------11-9-------11-9-----------| 2x 
A|----------------------------------------------------------------------------------------------|  
E|----------------------------------------------------------------------------------------------| 
B|----------------------------------------------------------------------------------------------| 

Guitar 2, 4:59-5:19 

e|----------------------------------------------------------------------------------------------| 
B|----------------------------------------------------------------------------------------------| 
G|--13----18----13----18----13----18----13----18----13----18-----13----18----13----18-----------| 2x 
D|-----14----14----14----14----14----14----14----14----14----14-----14----14----14----14--------| 
A|----------------------------------------------------------------------------------------------|  
E|----------------------------------------------------------------------------------------------| 
B|----------------------------------------------------------------------------------------------| 



Guitar 1, 5:19-5:45 
                           4x 
e|----------------------------||----------------------------------------------------------------| 
B|----------------------------||----------------------------------------------------------------| 
G|--------------2---4--6------||----------------------------------------------------------------| 
D|-----2--4-----2---4--6----2-||--4--4----4--4----4--4-----4--4---------------------------------| 
A|-5---2--4-----0---2--4----2-||--4--4----4--4----4--4-----4--4---------------------------------|  
E|-5---0--2-----------------0-||--2--2----2--2----2--2-----2--2---------------------------------| 
B|-3--------------------------||----------------------------------------------------------------| 

Guitar 2, 5:19-5:45. Formattings a bit naff. 

e|-----------------------------------------------------------------------17-19--19b21-----------| 
B|-----------------------------------------------------------15--17-19--------------------------| 
G|-----------------------------------------------14-16-18---------------------------------------| 
D|--------------------------------------12-14-16----------14------------------------------------| 
A|---------0--2-4------------0-2--4-------------------------------------------------------------|  
E|---0-2~---------0----0-2~---------0-----------------------------------------------------------| 
B|-3-----------------3--------------------------------------------------------------------------| 




Both guitars, 5:45-6:00 

e|----------------------5-4-0--------------------------------------------------------------------| 
B|----------------------5-4-0----------------2-5-4-0-4-------------------------------------------| 
G|----------------------------------------------------4------------------4-----------------------| 
D|---------------------------------------2-4------------4--------2-------------7---7-7-7-7-7-----| 
A|-------------------------------------------------------------4-------7-------7---7-7-7-7-7-----|  
E|-2-0-2-xx-0-00-2-0-2---------2-0-2-xx----------------------2-------4---------5---5-5-5-5-5-----| 
B|-----------------------------------------------------------------------------------------------| 
              ..                                    .                              .......... 



Guitar 1, 6:00-6:29 

e|-----------------------------14--12------------------------------------------------19-17p16----| 
B|-14-16b17r16-----14-16b17r16--------16-14-12-14-16b17r16---------------14-16b17r16----------19-| 
G|-------------16------------------------------------------16-13--13-16\-------------------------| 
D|--------------------------------------------------------------16-------------------------------| 
A|-----------------------------------------------------------------------------------------------|  
E|-----------------------------------------------------------------------------------------------| 
B|-----------------------------------------------------------------------------------------------| 

e|--------------------------------14--12---------------------------------------------------------| 
B|-14-16b17r16--------14-16b17r16--------16-14-12\----14-16b17r16--------------------------------| 
G|-------------16\-----------------------------------------------16-13--13-16\-------------------| 
D|--------------------------------------------------------------------16-------------------------| 
A|-----------------------------------------------------------------------------------------------|  
E|-----------------------------------------------------------------------------------------------| 
B|-----------------------------------------------------------------------------------------------| 

e|---------------------------------11-12-14-16--19~--------------15---19-------------------------| 
B|--------------12------------12-14--------------------------/15---------------------------------| 
G|---------11-13--13-11--11-13-------------------------------------------------------------------| 
D|-11-13-14------------14------------------------------------------------------------------------| 
A|-----------------------------------------------------------------------------------------------|  
E|-----------------------------------------------------------------------------------------------| 
B|-----------------------------------------------------------------------------------------------| 


Guitar 2, 6:00-6:29. Not 100% 

e|-----------------------------------------------------------------------------------------------| 
B|-----------------------------------------------------------------------------------------------| 
G|-----------------------------------------------------------------------------------------------| 
D|-9------7-----9-------7----5----6----------------------------------5--7---9--------------------| 
A|-9------7-----9-------7----5----7---------5-------4----5-------4---5--7---9--------------------|  
E|-7-7-7--5-----7--7-7--5----3----4---------5-------4----5-------4---3--5---7--------------------| 
B|------------------------------------------3-3-3---2----3-3-3---2-------------------------------| 
     . .           . .                        . .          . .         

e|-----------------------------------------------------------------------------------------------| 
B|-----------------------------------------------------------------------------------------------| 
G|-----------------------------------------------------------------------------------------------| 
D|-9------7-----9-------7----5----6------------------------------------7----3--------------------| 
A|-9------7-----9-------7----5----7---------5-------4----5-------4-----7----3--------------------|  
E|-7-7-7--5-----7--7-7--5----3----4---------5-------4----5-------4-----5----1--------------------| 
B|------------------------------------------3-3-3---2----3-3-3---2-------------------------------| 
     . .           . .                        . .          . .       



Guitar 1, 6:30-6:56 

e|-----------------------------------------------------------------------------------------------| 
B|-----------------------------------------------------------------------------------------------| 
G|-----------------------------------------------------------------------------------------------| 
D|------/12-11-----------14----------14-----------/12-11------------14------14-------------------| 
A|-9-10--------11-10-/12----12-12/13----13---9-10--------11-9--/10----10-11----11----------------|  
E|-----------------------------------------------------------------------------------------------| 
B|-----------------------------------------------------------------------------------------------| 

e|-----------------------------------------------------------------------------------------------| 
B|-------/15-14-----------17----------17-----------/15-14----------17--------17------------------| 
G|-11-12--------13-12-/14----14---/15----15--11-12--------13-11-12----12-13-----13\--------------| 
D|-----------------------------------------------------------------------------------------------| 
A|-----------------------------------------------------------------------------------------------|  
E|-----------------------------------------------------------------------------------------------| 
B|-----------------------------------------------------------------------------------------------| 

Guitar 2, 6:30-6:56 

e|-----------------------------------------------------------------------------------------------| 
B|-----------------------------------------------------------------------------------------------| 
G|-----------------------------------------------------------------------------------------------| 
D|-4-------5----------7---------8---------4------------------------------------------------------| x2 
A|-4-------5----------7---------8---------4------6--------3------4-------------------------------|  
E|-2-------3----------5---------6---------2------6--------3------4-------------------------------| 
B|-----------------------------------------------4--------1------2-------------------------------| 




Solo - Is this all synth or is there a harmonising guitar in there? Not gonna try tabbing it till 
confirmed 

Guitar 1, 6:56-7:26 

e|-----------------------------------------------------------------------------------------------| 
B|-----------------------------------------------------------------------------------------------| 
G|-----------------------------------------------------------------------------------------------| 
D|-2----3----5---6------------3---4----5--6------------------------------------------------------| 
A|-2----3----5---6---5---6----3---4----5--6--2-4-----------------------33337777------------------|  
E|-0----1----3---4---5---6----1---2----3--4--2-4-------------222255555---------------------------| 
B|-------------------3---4-------------------0-2-----22223333------------------------------------| 
                                                     ...........................    
e|-----------------------------------------------------------------------------------------------| 
B|-----------------------------------------------------------------------------------------------| 
G|-11-11----11-11----11-11------11-11------------------------------------------------------------| 
D|-11-11----11-11----11-11------11-11------------------------------------------------------------| 
A|-9--9-----9--9-----9--9-------9--9-------------------------------------------------------------|  x4 
E|-----------------------------------------------------------------------------------------------| 
B|-----------------------------------------------------------------------------------------------| 



Guitar 1, 7:26-8:13. Note that there is a lot going on in the background here, can't make it out so 
will leave tabbing it for another day. 

e|----------------------------------------------------------------------------------------------| 
B|----------------------------------------------------------------------------------------------| 
G|----------------------------------------------------------------------------------------------| 
D|-4--------------------2------------------4------------------2-----------7----6----------------|  
A|-4-x14-----4----------2-x14----2---------4-x14-----5--------2-x14-------7-x6-6-x8-------------| 
E|-2---------4-x14------0--------2-x14-----2---------5-x14----0-----------5----4----------------| 
B|-----------2-------------------0-------------------3------------------------------------------| 

e|----------------------------------------------------------------------------------------------| 
B|----------------------------------------------------------------------------------------------| 
G|----------------------------------------------------------------------------------------------| 
D|-4--------------------2------------------4------------------2-----------7----6----------------|  
A|-4-x14-----4----------2-x14----2---------4-x14-----5--------2-x14-------7-x6-7-x2-------------| 
E|-2---------4-x14------0--------2-x14-----2---------5-x14----0-----------5----4----------------| 
B|-----------2-------------------0-------------------3------------------------------------------| 
                                         ............................................. 



Both Guitars, 8:13-8:14 

e|----------------------------------------------------------------------------------------------| 
B|-7-5---5--------------------------------------------------------------------------------------| 
G|-----6---6-4--4-6-4---------------------------------------------------------------------------| 
D|-------------7-----7-4---4--4ph---------------------------------------------------------------| 
A|-----------------------7----------------------------------------------------------------------| 
E|----------------------------------------------------------------------------------------------| 
B|----------------------------------------------------------------------------------------------| 



Both guitars, 8:14-8:38 
                                               1,2,3                     4 
e|--------------------------------------------||------------------------|-----------------------| 
B|--------------------------------------------||------------------------|-----------------------| 
G|--------------------------------------------||------------------------|-----------------------| 
D|-4----------------7-------------------------||--------------------2---|-----------------------|  4x 
A|-4----------------7--------------6----------||----4----2-----4----2---|-----------------------| 
E|-2-2-2-2-2-22-2---5-5-5-5-55-5---6----------||----4----2-----4--0-0---|-----------------0000--| 
B|---------------------------------4-4-4-44-4-||--2-2--0-0---2-2--------|-2222200000022222------| 
     .............    ..........     ........     .    .     .    .       .................... 
    

Both guitars, 8:38-844 

e|----------------------------------------------------------------------------------------------| 
B|-7-5-5-----------------5----------------------------------------------------------------------| 
G|----6-6-4--4-6-4---------6-4-6-4---------4----------------------------------------------------| 
D|----------7-----7-4---4-----------7---4-7--7-4-----7-4-----4----------------------------------| 
A|--------------------7---------------7----------7-4----7-4----7-4---7-4---4--------------------|  
E|----------------------------------------------------------7------7-----7---7-5-7-5-2-5-2-0-2--| 
B|----------------------------------------------------------------------------------------------| 


Guitar 1, 8:44-9:08 

e|----------------------------------------------------------------------------------------------| 
B|----------------------------------------------------------------------------------------------| 
G|----------------------------------------------------------------------------------------------| 
D|----------------------------------------------------------------------------------------------| 
A|----------------------------------------------------------------------------------------------| x2 
E|----------------------------------------------------------------------------------------------| 
B|---------------------------------------------------------------------------4b--4b-------------| 
E|--2b-0-0--2b-0-0-0--2b-0-0--2b-2b-0-0--0---2b-0-0--2b-0-0-0-2b-0-0-2b 2b-0--------------------| 

Compartilhe esta música: novo

QR Code
Copiar