você pode ir na janela

Gram

Tom: E
Introdução... 
 
 
E---------2----------2----------2----------2---- 
B------5----------5----------5----------5------- 
G---4----------4----------4----------4---------- 
D----------------------------------------------- 
A----------------------------------------------- 
E----------------------------------------------- 
 
Na quinta vez ou quando quiser começar a música faça o seguinte... 
 
E--------------------- 
B--------------------- 
G--------------------- 
D---9-----9-----9----- 
A---7-----7-----7----- 
E---7-----7-----7----- 
 
(Continue tocando) 
 
Se não vai, não desvie a minha estrela... 
 
Não desloque a linha *reta... 
 
*	(E5) 
E-----------------------					 
B----------------------- 
G---9----9----9----9---- 
D---9----8----9----8----	 
A---7----7----7----7---- 
E----------------------- 
 
(Com outra guitarra faça o dedilhado para E5) 
 
E---4----4----4----4---- 
B---5----5----5----5---- 
G---4----4----4----4---- 
D----------------------- 
A----------------------- 
E----------------------- 
 
 
 
 
	(D5) 
 
E----------------------- 
B----------------------- 
G----------------------- 
D---9----8----9----8---- 
A---6----6----6----6---- 
E----------------------- 
 
(Faça o dedilhado para D5) 
 
E---2----2----2----2----2----2----2----2---- 
B---4----4----4----4----4----4----4----4---- 
G---4----4----3----3----4----4----3----3---- 
D------------------------------------------- 
A------------------------------------------- 
E------------------------------------------- 
 
Você só me fez mudar, mas depois mudou de mim... 
 
(Obs: Faça isso e recomece no seguinte trecho): 
 
 
(Dedilhado intro) 
 
			            E5 
Mas se vai, você pode ir na janela... 
 
(Na parte 'VAI SEM DUVIDAR' faça o dedilhado e toque E5 abafado) 
 
 
*Não sei se esta cifra está certa. Provavelmente sim. Escutem a 
música para melhor desempenho. Se acharem que está errada, por favor,
tentem corrigir. Obrigado! 
 
Thiago Silva dos Santos			[email protected] 
Michelle, minha gatona...Sou seu fã! 
Nirvana na veia. 
Yeah! 
 
 
 
 
 

Compartilhe esta música: novo

QR Code
Copiar