M1a1

Gorillaz

standard tuning 
 
 
|------------------ 
|------------------ 
|------------------ 
|------------------ 
|------------------ 
|-----5-5-0-1-1----      Repeat 5x 
 
 
|------------------ 
|------------------ 
|------------------ 
|-------7-7-0-3---- 
|-------7-7-0-3---- 
|-------5-5-0-1----       Repeat 4x 
 
|-------------------- 
|-------------------- 
|--------3------7-7-- 
|--7-7-0--3--0--7-7-- 
|--7-7-0--3--0--7-7--       play all the way through 
|--5-5-0--1--0--5-5-- 
 
solo: 
 
|-7-7-7-7-9-9-9-9-11-11-11-11-13-13-13-13-14-14-15-16-17-19- 
|----------------------------------------------------------- 
|----------------------------------------------------------- 
|----------------------------------------------------------- 
|----------------------------------------------------------- 
|----------------------------------------------------------- 
  
sorry, i know it's crapy, but it's pretty close 

Compartilhe esta música: novo

QR Code
Copiar