Latin Simone

Gorillaz

intro
^ = bend
-|-------------------------------------------------------------|-
-|-------------------------------------------------------------|-
-|-------------------------------------------------------------|-
-|-------4-------------------4-------------------6-------------|-
-|----4- 4 ---------------4- 4 ---------------6- 6 ------------|-
-|-2---------5-5^ 5 ---2---------5-5^ 5 ---4---------7-7^ 7 ---|-

-|-----------------------------------------|-
-|-----------------------------------------|-
-|-----------------------------------------|-
-|-------4-------------------6-------------|-
-|----4- 4 ---------------6- 6 ------------|-
-|-2---------5-5^ 5 ---4---------7-7^ 7 ---|-

Compartilhe esta música: novo

QR Code
Copiar