Lake Zurich

Gorillaz

Part 1 
(Guitar 1) 
e|-------------| 
B|-------------| 
G|-------------| 
D|--5-(5)-3-5-|| 
A|-------------| 
E|-------------| x8 

Part 2 
(Guitar 1) 
e|-------------| 
B|-------------| 
G|-------------| 
D|--5-(5)-3-5-|| 
A|-------------| 
E|-------------| x8 

(Guitar 2) 
e|------| 
B|------| 
G|------| 
D|------| 
A|------| 
E|-1/22-| VERY SLOWLY 


Part 3 
(Guitar 1) 
e|-------------| 
B|-------------| 
G|--5-(5)-3-5--| 
D|-------------| 
A|-------------| x16 
E|-------------| 

(Guitar 2) 
e|--------------------------------------| 
B|--------------------------------------| 
G|--------------------------------------| 
D|-5--------------------7-8-9-10-5-3----| 
A|--------------------------------------| 
E|--------------------------------------| x8 


Part 4 
(Guitar 1) 
e|-------------| 
B|-------------| 
G|-------------| 
D|--5-(5)-3-5-|| 
A|-------------| 
E|-------------| x16 

(Guitar 2) 
e|--------------------------------------| 
B|--------------------------------------| 
G|--------------------------------------| 
D|-5--------------------7-8-9-10-5-3----| 
A|--------------------------------------| 
E|--------------------------------------| x8 

(Guitar 3) 
e|----------| 
B|----------| 
G|----------| 
D|-3-3-5-3--| 
A|----------| 
E|----------| x16 


Part 5 
(Guitar 1) 
e|-------------| 
B|-------------| 
G|-------------| 
D|--5-(5)-3-5-|| 
A|-------------| 
E|-------------| x16 

(Guitar 2) 
e|-------------------------------------------| 
B|-------------------------------------------| 
G|-------------------------------------------| 
D|-5--------------------7-8-9-10-5-3--7-5-10-| 
A|-------------------------------------------| 
E|-------------------------------------------| x8 

(Guitar 3) 
e|----------| 
B|----------| 
G|----------| 
D|-3-3-5-3--| 
A|----------| 
E|----------| x16 


Part 6 
(Guitar 1) 
e|-------------| 
B|-------------| 
G|-------------| 
D|--5-(5)-3-5-|| 
A|-------------| 
E|-------------| x16 


Part 7 
(Guitar 1) 
e|-------------| 
B|-------------| 
G|-------------| 
D|--5-(5)-3-5-|| 
A|-------------| 
E|-------------| x16 

(Guitar 2) 
e|-------------------------------------------| 
B|-------------------------------------------| 
G|-------------------------------------------| 
D|-5--------------------7-8-9-10-5-3--7-5-10-| 
A|-------------------------------------------| 
E|-------------------------------------------| x8 

(Guitar 3) 
e|----------| 
B|----------| 
G|----------| 
D|-3-3-5-3--| 
A|----------| 
E|----------| x16 


Part 8 
(Guitar 1) 
e|-------------| 
B|-------------| 
G|-------------| 
D|--5-(5)-3-5-|| 
A|-------------| 
E|-------------| x16 


************************************ 

| (n) Ghost note 
| /   Slide up 

************************************ 

Compartilhe esta música: novo

QR Code
Copiar