Hip Albatross (solo)

Gorillaz

Outro solo: 
 
E------------------------------|------------------------------| 
B------------------------------|------------------------------| 
G------------------------------|------------------------------| 
D-----------2------------------|-----------2------------------| 
A------5-----------4---5-------|------5-------------4---5-----| 
E--3------------2--------------|--3--------------2------------| 
 
 
 
E-------------------------------| 
B-------------------------------| 
G-------------------------------| 
D-------------------------------| 
A--------3-------------------2--| 
E---1-------------------1-0-----| 
 
Then... 
 
E-------------------------------------| 
B-------------------------------------| 
G---4/6--2/4------4--6---6p4\4p2------| 
A--------------2--------------------0-| 
E----------------------------------0--| 
 
E------------------------------------------|----------------------| 
B------------------------------------------|----------------------| 
G--4/6--4\2--2--4-----------4\2/4--6--2--4-|-------4/6--4\2--4--2-| 
D------------------------------------------|----------------------| 
A------------------------2-----------------|---0------------------| 
E-------------------0-0--------------------|-0--------------------|  
 
 
Russia LOVE Gorillaz!!

Compartilhe esta música: novo

QR Code
Copiar