Fire coming out of the monkeys head

Gorillaz

Tom: C
hey now this is the first part and it is hard work 
p=pull off 
/=slide 
h=hammeron 
^=bend up 
>=bend down 
tuning eadgbe 
verse 
 
e------5------55- 
b------5------55- 
g---------------- repeated many times 
d----------------  
a---------------- 
e--5^---5-^>-----  
 
this might be a bit complicating but the bass line that is played 
on the low e string constantly switches but i managed 
to tab each note so play each note in sequence with the tab above 
 
 
low e 
 
e-5-5---5-5---5-5---5-5---5-5---5-5 repeated twice 
 
e-5--3--5--3--5--3--5--3--3--1--7--5--3--3--1--1-- 
 
bridge 1 
 C         G       C     G 
e--------------------------------- 
b----1-------0--------1-------0--- 
g-----0--------0h2-----p0------0h3  repeated a few times 
d--------------------------------- 
a-3-----0-2--------3-----0-2------ 
e--------------------------------- 
 
verse 
 
outro 
listen for picking 
Am G openAm G Dm7 highC G F F E 
 
 
 
and that is just about all the time that I had left 
 
later on i will have finished tabbin the keyboard part for 
part 2 
 
see yas all for now 
 
Blitztreak1 
 
please send any corrections to [email protected] 
 

Compartilhe esta música: novo

QR Code
Copiar