Dare

Gorillaz

DARE 
 
this is song doesn't have any guitar 
in it, but i tabbed the keyboard parts. 
 
here's one . . . 
(played through most of the song) 
 
e------13-----12----10----10-- 
b--11------10-----8-----8----- 
g-----------------------------played 
d-----------------------------many 
a-----------------------------times 
e----------------------------- 
 
. . . and here's the other one 
that comes in later in the song. 
 
e--15--------13------- 
b-------15--------15-- 
g---------------------played 
d---------------------many  
a---------------------times 
e--------------------- 
 
 ~enjoy~ 

Compartilhe esta música: novo

QR Code
Copiar