68 State

Gorillaz

Tuning: standard 

e|---------------------------------------------------------------------------| 
B|----------------14-----------------12--------------------------------------| 
G|----------------14-----------------13--------------------------------------| 
D|----14-14-14-14-14--x-x--14-14-14-14-14-x-x--------------------------------| 
A|---------------------------------------------------------------------------| 
E|---------------------------------------------------------------------------| 

e|--------------9---9-12-9-12/14--12-9--9------------------------------------| 
B|---7~--7-10-7---------------------------12\10------------------------------| 
G|---------------------------------------------------------------------------| 
D|---------------------------------------------------------------------------| 
A|---------------------------------------------------------------------------| 
E|---------------------------------------------------------------------------| 

e|-----------------------------------------------------------------------------| 
B|-------5--5-5----------------------------------------------------------------| 
G|-----5--5--5--7--------------------------------------------------------------| 
D|----------------8------------------------------------------------------------| 
A|-----------------------------------------------------------------------------| 
E|-----------------------------------------------------------------------------| 

| /  slide up 
| \  slide down 
| h  hammer-on 
| p  pull-off 
| ~  vibrato 
| +  harmonic 
| x  Mute note 

Compartilhe esta música: novo

QR Code
Copiar