Verde, Amarillo, y Rojo (Bass)

Gondwana

Intro and Verse 1: 
 
G|----------------------------------------------| 
D|----------------------------------------------| 
A|-----------2---------2---------0--4---2-4-2-4-|  x8 
E|-0---0--4------0--4-----2---2-----------------| 
 
Riff 1: 
 
G|---------------------------------------------| 
D|---------------------------------------------| 
A|-2---2-----2---2-----2--4--4-----4---4-----4-|  x2 
E|-------4-4-------4-4---------4-4-------4-4---| 
 
 
G|--------------------------| 
D|--------------------------| 
A|------------------------2-| 
E|-2---2-2-2-2---2-2-2-2----| 
 
Chorus & Verse 2: 
 
G|----------------------------------------------| 
D|----------------------------------------------| 
A|-----------2---------2---------0--4---2-4-2-4-|  x8 
E|-0---0--4------0--4-----2---2-----------------| 
 
Riff 2: 
 
G|---------------------------------------------| 
D|---------------------------------------------| 
A|-2---2-----2---2-----2--4--4-----4---4-----4-|  x2 
E|-------4-4-------4-4---------4-4-------4-4---| 
 
 
G|--------------------------| 
D|--------------------------| 
A|------------------------2-| 
E|-2---2-2-2-2---2-2-2-2----| 
 
Chorus & Trumpet Solo: 
 
G|----------------------------------------------| 
D|----------------------------------------------| 
A|-----------2---------2---------0--4---2-4-2-4-|  x8 
E|-0---0--4------0--4-----2---2-----------------| 
 
Riff 3: 
 
G|---------------------------------------------| 
D|---------------------------------------------| 
A|-2---2-----2---2-----2--4--4-----4---4-----4-|  x2 
E|-------4-4-------4-4---------4-4-------4-4---| 
 
 
G|--------------------------| 
D|--------------------------| 
A|------------------------2-| 
E|-2---2-2-2-2---2-2-2-2----| 
 
Chorus & End: 
 
G|----------------------------------------------| 
D|----------------------------------------------| 
A|-----------2---------2---------0--4---2-4-2-4-| 
E|-0---0--4------0--4-----2---2-----------------| 
 
 
(Repeats till end.) 

Compartilhe esta música: novo

QR Code
Copiar