Sweetly

Gigi D'Agostino

 
=-=-= Legend =-=-= 
~ - Let ring 
s - Slide to required note 
sl - Slide late to required note 
h - Hammer on 
hl - Hammer on late 
p - Pull off 
pl - Pull off late 
<> - Harmonics/Vibrate 
{} - Played Louder 
() - Played Softer 
{} - Continued Note from Last Bar 
= - Staccato 
b* - Bend to required note 
r* - Bend Return to required note 
#*#- If you wish, play the required fill here. 
§ - Heavy vibrate. 
 
 
 
The song consists of a clean electric/light distortion guitar and some 
backup riffs. 
The tuning is the standard E. 
Good luck! 
 
 
 
~~~~~~~~~~~~~~~~~~~~~~~~~~~~~~~~~~~~~~~~~~~~~~~~~~~~~~~~~~~~~~~~~~~~~~~~~~~~~~~~ 
 
 
INTRO 
 
Time: 00:00 
e|---------------------8~~~~------------------------------------------------| 
B|-6~~~~~~-5--6~~~~----------5--6~~~~---------------------------------------| 
G|--------------------------------------------5--5h6~~~~--------------------| 
D|-----------------------------------------7-----------------5--7~~~~~~~~~~-| 
A|--------------------------------------------------------------------------| 
E|--------------------------------------------------------------------------| 
 
e|------------8~~~~-----------------------------------------------------------| 
B|6~~~~-5--6--------6--5------------------------------------------------------| 
G|------------------------7~~~~--------4--2--4~~~~-2--4--4s6~~~~--4--2--------| 
D|----------------------------------------------------------------------4~~~~-| 
A|----------------------------------------------------------------------------| 
E|----------------------------------------------------------------------------| 
 
 
 
 
~~~~~~~~~~~~~~~~~~~~~~~~~~~~~~~~~~~~~~~~~~~~~~~~~~~~~~~~~~~~~~~~~~~~~~~~~~~~~~~~ 
 
 
 
Here some kind of backing riff consisting of a synthesizer shows up.. 
Play this riff twice. 
 
Time: 00:45 
e|-------------------------------------------------------------------------| 
B|-------------------------------------------------------------------------| 
G|-------------------------------------------------------------------------| 
D|-4--2-------------------------4--2---------------------------------------| 
A|-------4~~~~~~----------------------4~~~~~~------------------------------| 
E|-------------------------------------------------------------------------| 
 
 
 
 
~~~~~~~~~~~~~~~~~~~~~~~~~~~~~~~~~~~~~~~~~~~~~~~~~~~~~~~~~~~~~~~~~~~~~~~~~~~~~~~~ 
 
 
The riff continues with a lot of weird backups.. 
 
Time: 01:15 
e|---10~~-------10~~--------13~~-------------------------------------------| 
B|-8----------8----------10----------8-6-------------10~~-6-8~~-5-6~~~~----| 
G|---------------------------------------7h9--7~~~~~-----------------------| 
D|-------------------------------------------------------------------------| 
A|-------------------------------------------------------------------------| 
E|-------------------------------------------------------------------------| 
 
e|-------------8------------------------------------------------8----------| 
B|-10~~-6-8~~----5~-6~~~~---10~~-6-8~~-5-6~~~~------10~~-6-8~~----5sl6~~~~-| 
G|-------------------------------------------------------------------------| 
D|-------------------------------------------------------------------------| 
A|-------------------------------------------------------------------------| 
E|-------------------------------------------------------------------------| 
 
 
~~~~~~~~~~~~~~~~~~~~~~~~~~~~~~~~~~~~~~~~~~~~~~~~~~~~~~~~~~~~~~~~~~~~~~~~~~~~~~~~ 
 
 
 
Some really fast tablatures show up.. 
 
Time: 02:01 
e|-------------------------------------------------------------------------| 
B|-18p15p13----------------------------------------------------------------| 
G|----------14p12p10----12--10pl12----------------10~~---------------------| 
D|-------------------12------------12--10--8~~-7-------5--5~~-7~~~~--------| 
A|-------------------------------------------------------------------------| 
E|-------------------------------------------------------------------------| 
 
e|-------------------------------------------------------------------------| 
B|-18p15p13--------------------------------------------------5--6--6s8-----| 
G|----------13p12-12p10-----12pl10-10-----------------------------------7~-| 
D|----------------------12------------12-10--------------------------------| 
A|------------------------------------------10-8-8hl10-8h10~---------------| 
E|-------------------------------------------------------------------------| 
 
 
 
 
~~~~~~~~~~~~~~~~~~~~~~~~~~~~~~~~~~~~~~~~~~~~~~~~~~~~~~~~~~~~~~~~~~~~~~~~~~~~~~~~ 
 
 
 
Time: 02:16 
e|-------------------------------8--------------------------5-----6-------| 
B|-10~~-6--8~~-5--6~~~~-----10~~----6~~-5--6------------------6~~---5~----| 
G|--------------------------------------------7~~~~~~~-7~~-------------7~-| 
D|------------------------------------------------------------------------| 
A|------------------------------------------------------------------------| 
E|------------------------------------------------------------------------| 
 
e|-----5-----6---------------10----15-13~~-----15~~-13-----------------| 
B|-------6~~---6--5~~~~-8s10----10----------13---------15-13~-15~~~~---| 
G|-7~~-----------------------------------------------------------------| 
D|---------------------------------------------------------------------| 
A|---------------------------------------------------------------------| 
E|---------------------------------------------------------------------| 
 
e|-------------------------------------------------------------| 
B|-8s10~~-6-8~~-5-6-8~sl10~~~~--13~-12-13--10~~-8~-10~~~~~~----| 
G|-------------------------------------------------------------| 
D|-------------------------------------------------------------| 
A|-------------------------------------------------------------| 
E|-------------------------------------------------------------| 
 
e|------12--------------------------10-------8-------8---------| 
B|-13~~----13~-8~-6-8~sl10~~~~--10~-----6-8~----5-6~-----------| 
G|-------------------------------------------------------------| 
D|-------------------------------------------------------------| 
A|-------------------------------------------------------------| 
E|-------------------------------------------------------------| 
 
e|-13p12p10----12--------------------------------------------------------------- 
---| 
B|----------13----13-10-10---------------------------------------------------13h 
15-| 
G|--------------------------12--10s9--10----------------------------------14---- 
---| 
D|----------------------------------------12---------10-12h14h15-12h14-15------- 
---| 
A|---------------------------------------------10h12---------------------------- 
---| 
E|------------------------------------------------------------------------------ 
---| 
 
 
~~~~~~~~~~~~~~~~~~~~~~~~~~~~~~~~~~~~~~~~~~~~~~~~~~~~~~~~~~~~~~~~~~~~~~~~~~~~~~~~ 
~~~~~~~~~~~~~~~~~~~~~~ 
~~~~~~~~~~~~~~~~~~~~~~~~~~~~~~~~~~~~~~~~~~~~~~~~~~~~~~~~~~~~~~~~~~~~~~~~~~~~~~~~ 
~~~~~~~~~~~~~~~~~~~~~~ 
Only 1½ minute left... -.- 
 
Time: 03:32 
e|--------------------------------10~-------10~--------------------------------- 
-------------| 
B|-8~~-10--6-8~~~-5-6~~~~~~---10~-----8--8~------------------------------------- 
-------------| 
G|----------------------------------------------12h13-15-13-7s9----------------- 
-------------| 
D|---------------------------------------------------------------7-------------- 
-------------| 
A|-----------------------------------------------------------------10-8-7-8s10-- 
8----8--10-8-| 
E|------------------------------------------------------------------------------ 
--10---------| 
 
e|------------------------------------------------------------------------------ 
---| 
B|-------------8------------------------8--------------------------------------- 
---| 
G|-----5-5---9---7-5hl7-7~~---5-5---7s9---7-5hl7-------------------------------- 
---| 
D|-5s7-----7----------------7-----7--------------7-5-3--5h7-5h7-------5h7p5-7~~~ 
~~-| 
A|------------------------------------------------------------------------------ 
---| 
E|------------------------------------------------------------------------------ 
---| 
 
 
 
~~~~~~~~~~~~~~~~~~~~~~~~~~~~~~~~~~~~~~~~~~~~~~~~~~~~~~~~~~~~~~~~~~~~~~~~~~~~~~~~ 
 
 
 
Time: 04:01 
e|-13h15--15h17--------13h15--17-------13h15--17--------13h15--17----------| 
B|-------------------------------------------------------------------------| 
G|-------------------------------------------------------------------------| 
D|-------------------------------------------------------------------------| 
A|-------------------------------------------------------------------------| 
E|-------------------------------------------------------------------------| 
 
e|---------------------------------------------------------------------| 
B|---------------------------------------------------------------------| 
G|-14~~~~----14~~~~----18p15p13--------14~~----18p15p13--------14~~----| 
D|------------------------------14-12-------------------14-12----------| 
A|---------------------------------------------------------------------| 
E|---------------------------------------------------------------------| 
 
e|-------------------------------------------------------------------------| 
B|-------------------8-----------------------------------------------------| 
G|-12p10p9-------7s9---7-5------------------7------------------------------| 
D|---------12-10-----------7--5~~--------10---7-----------------------7h10-| 
A|--------------------------------7h8h12--------10-10-8-10~~~~---8h10------| 
E|-------------------------------------------------------------------------| 
 
e|-----------------------------------------------------------15-13-12------| 
B|---8---------8--------------------13p10-10----13----10--------------15---| 
G|-9---10-9-10---9---------------------------12----12----------------------| 
D|-----------------7-----------7-------------------------------------------| 
A|-------------------10-8-8s10---------------------------------------------| 
E|-------------------------------------------------------------------------| 
 
Starts to fade out.. 
e|-15-13-------13-12-------------------------------------------------------| 
B|--------15----------13~hl15-----------13---------------------------------| 
G|--------------------------------12s14----14-13-13~~~~--------------------| 
D|-------------------------------------------------------------------------| 
A|-------------------------------------------------------------------------| 
E|-------------------------------------------------------------------------| 

Compartilhe esta música: novo

QR Code
Copiar