Friends In Low Places

Garth Brooks

Tom: A
I'm tired of seeing people put this song in the key of G and trying to 
pull off the picking. 
not that it is bad but when I was just starting guitar the swich in Keys would  
have confused me. 
 
The song is in the key of A  
 
This is for the beginners who might be confused by any key changes. 
 
 
e----------------5------------- 
b----2----2----3------0-------- 
g---2----0----2-3----1--------- 
d--2----2----4------2---------- 
a-0----1----2------2----------- 
E------------------------------ 
 
 
That's as simple as it gets. 
I don't have the ablum version yet. 
this was how he played it on his double live album 
but i heard the ablum version before and it sounds identicle. 
 
by the way 
 
when garth is talking on the Cd all the back ground is doing is 
 
e----------------------- 
b----------------------- 
g----------------------- 
d------7---------7------ 
a------7---------7------ 
E-5---------5----------- 
 
over and over again. 

Compartilhe esta música: novo

QR Code
Copiar